ISO-10303-21;
HEADER;
FILE_DESCRIPTION (( 'STEP AP203' ),
    '1' );
FILE_NAME ('55786.step',
    '2021-10-08T08:11:55',
    ( '' ),
    ( '' ),
    'SwSTEP 2.0',
    'SolidWorks 2019',
    '' );
FILE_SCHEMA (( 'CONFIG_CONTROL_DESIGN' ));
ENDSEC;

DATA;
#1 = DIRECTION ( 'NONE',  ( 3.491481338843133355E-15, -1.224646799147353207E-16, 1.000000000000000000 ) ) ;
#2 = PLANE ( 'NONE',  #29 ) ;
#3 = APPROVAL ( #54, 'UNSPECIFIED' ) ;
#4 = FACE_OUTER_BOUND ( 'NONE', #108, .T. ) ;
#5 = ORGANIZATION ( 'UNSPECIFIED', 'UNSPECIFIED', '' ) ;
#6 = AXIS2_PLACEMENT_3D ( 'NONE', #138, #99, #203 ) ;
#7 = UNCERTAINTY_MEASURE_WITH_UNIT (LENGTH_MEASURE( 1.000000000000000082E-05 ), #9, 'distance_accuracy_value', 'NONE');
#8 = APPLICATION_PROTOCOL_DEFINITION ( 'international standard', 'config_control_design', 1994, #73 ) ;
#9 =( LENGTH_UNIT ( ) NAMED_UNIT ( * ) SI_UNIT ( .MILLI., .METRE. ) );
#10 = CC_DESIGN_PERSON_AND_ORGANIZATION_ASSIGNMENT ( #25, #32, ( #134 ) ) ;
#11 = CARTESIAN_POINT ( 'NONE',  ( 1.612646152681326174E-15, 0.7999999999999984901, 0.4618802153517051479 ) ) ;
#12 = EDGE_LOOP ( 'NONE', ( #185 ) ) ;
#13 = CIRCLE ( 'NONE', #87, 0.7999999999999986011 ) ;
#14 = APPROVAL_STATUS ( 'not_yet_approved' ) ;
#15 = COORDINATED_UNIVERSAL_TIME_OFFSET ( 1, 0, .AHEAD. ) ;
#16 = CARTESIAN_POINT ( 'NONE',  ( 4.310726068062857675E-14, -1.511999168525819997E-15, 12.34641016151377535 ) ) ;
#17 = ADVANCED_FACE ( 'NONE', ( #195 ), #220, .T. ) ;
#18 = APPROVAL_DATE_TIME ( #114, #48 ) ;
#19 = CARTESIAN_POINT ( 'NONE',  ( 0.0000000000000000000, 0.0000000000000000000, 0.0000000000000000000 ) ) ;
#20 = CIRCLE ( 'NONE', #146, 1.000000000000000888 ) ;
#21 = PERSON_AND_ORGANIZATION ( #170, #5 ) ;
#22 = PRODUCT_RELATED_PRODUCT_CATEGORY ( 'detail', '', ( #134 ) ) ;
#23 = DIRECTION ( 'NONE',  ( 1.000000000000000000, 0.0000000000000000000, 0.0000000000000000000 ) ) ;
#24 = CARTESIAN_POINT ( 'NONE',  ( 1.326762908760390423E-13, -4.653657836759941941E-15, 38.00000000000000000 ) ) ;
#25 = PERSON_AND_ORGANIZATION ( #170, #5 ) ;
#26 = CYLINDRICAL_SURFACE ( 'NONE', #104, 0.9999999999999988898 ) ;
#27 = EDGE_CURVE ( 'NONE', #71, #71, #65, .T. ) ;
#28 = DIRECTION ( 'NONE',  ( -3.491481338843133355E-15, 1.224646799147353207E-16, -1.000000000000000000 ) ) ;
#29 = AXIS2_PLACEMENT_3D ( 'NONE', #150, #46, #81 ) ;
#30 = CARTESIAN_POINT ( 'NONE',  ( 1.319779946082704535E-13, 0.9999999999999963363, 37.79999999999999716 ) ) ;
#31 = CC_DESIGN_APPROVAL ( #210, ( #55 ) ) ;
#32 = PERSON_AND_ORGANIZATION_ROLE ( 'design_owner' ) ;
#33 = FACE_OUTER_BOUND ( 'NONE', #93, .T. ) ;
#34 = EDGE_CURVE ( 'NONE', #191, #191, #20, .T. ) ;
#35 = PERSON_AND_ORGANIZATION ( #170, #5 ) ;
#36 = CARTESIAN_POINT ( 'NONE',  ( 1.326762908760390423E-13, 0.7999999999999962697, 38.00000000000000000 ) ) ;
#37 = PERSON_AND_ORGANIZATION_ROLE ( 'classification_officer' ) ;
#38 = ORIENTED_EDGE ( 'NONE', *, *, #34, .F. ) ;
#39 = APPROVAL_PERSON_ORGANIZATION ( #213, #3, #216 ) ;
#40 = CALENDAR_DATE ( 2021, 8, 10 ) ;
#41 = FACE_OUTER_BOUND ( 'NONE', #171, .T. ) ;
#42 = APPROVAL_ROLE ( '' ) ;
#43 = CARTESIAN_POINT ( 'NONE',  ( 1.612646152681325780E-15, -5.656401273199557944E-17, 0.4618802153517050368 ) ) ;
#44 = CARTESIAN_POINT ( 'NONE',  ( 4.189777606611760026E-14, -1.469576158976823947E-15, 12.00000000000000000 ) ) ;
#45 = FACE_BOUND ( 'NONE', #58, .T. ) ;
#46 = DIRECTION ( 'NONE',  ( 3.491481338843133355E-15, -1.224646799147353207E-16, 1.000000000000000000 ) ) ;
#47 = AXIS2_PLACEMENT_3D ( 'NONE', #19, #174, #63 ) ;
#48 = APPROVAL ( #179, 'UNSPECIFIED' ) ;
#49 = DIRECTION ( 'NONE',  ( 0.0000000000000000000, 0.0000000000000000000, 1.000000000000000000 ) ) ;
#50 = CARTESIAN_POINT ( 'NONE',  ( 1.612646152681325780E-15, -5.656401273199557944E-17, 0.4618802153517050368 ) ) ;
#51 = EDGE_CURVE ( 'NONE', #118, #118, #193, .T. ) ;
#52 = AXIS2_PLACEMENT_3D ( 'NONE', #205, #28, #129 ) ;
#53 = FACE_BOUND ( 'NONE', #160, .T. ) ;
#54 = APPROVAL_STATUS ( 'not_yet_approved' ) ;
#55 = SECURITY_CLASSIFICATION ( '', '', #181 ) ;
#56 = EDGE_LOOP ( 'NONE', ( #223 ) ) ;
#57 = CC_DESIGN_PERSON_AND_ORGANIZATION_ASSIGNMENT ( #61, #125, ( #68 ) ) ;
#58 = EDGE_LOOP ( 'NONE', ( #218 ) ) ;
#59 = PERSON_AND_ORGANIZATION ( #170, #5 ) ;
#60 = ORIENTED_EDGE ( 'NONE', *, *, #110, .T. ) ;
#61 = PERSON_AND_ORGANIZATION ( #170, #5 ) ;
#62 = ORIENTED_EDGE ( 'NONE', *, *, #77, .F. ) ;
#63 = DIRECTION ( 'NONE',  ( 4.275831445896958607E-31, 1.000000000000000000, 1.224646799147353207E-16 ) ) ;
#64 = FACE_OUTER_BOUND ( 'NONE', #12, .T. ) ;
#65 = CIRCLE ( 'NONE', #167, 0.8000000000000010436 ) ;
#66 = ADVANCED_FACE ( 'NONE', ( #41 ), #98, .T. ) ;
#67 = DIRECTION ( 'NONE',  ( 0.0000000000000000000, -1.000000000000000000, 0.0000000000000000000 ) ) ;
#68 = PRODUCT_DEFINITION_FORMATION_WITH_SPECIFIED_SOURCE ( 'ANY', '', #134, .NOT_KNOWN. ) ;
#69 = DIRECTION ( 'NONE',  ( -3.491481338843133355E-15, 1.224646799147353207E-16, -1.000000000000000000 ) ) ;
#70 = CC_DESIGN_PERSON_AND_ORGANIZATION_ASSIGNMENT ( #92, #37, ( #55 ) ) ;
#71 = VERTEX_POINT ( 'NONE', #131 ) ;
#72 = LOCAL_TIME ( 10, 11, 55.00000000000000000, #177 ) ;
#73 = APPLICATION_CONTEXT ( 'configuration controlled 3d designs of mechanical parts and assemblies' ) ;
#74 = AXIS2_PLACEMENT_3D ( 'NONE', #16, #200, #113 ) ;
#75 = DIRECTION ( 'NONE',  ( 3.491481338843133355E-15, -1.224646799147353207E-16, 1.000000000000000000 ) ) ;
#76 = APPROVAL_ROLE ( '' ) ;
#77 = EDGE_CURVE ( 'NONE', #135, #135, #119, .T. ) ;
#78 = CARTESIAN_POINT ( 'NONE',  ( 4.189777606611760026E-14, 5.999039130647415378E-33, 12.00000000000000000 ) ) ;
#79 = CONICAL_SURFACE ( 'NONE', #204, 0.9999999999999970024, 0.5235987755982911551 ) ;
#80 = PLANE ( 'NONE',  #52 ) ;
#81 = DIRECTION ( 'NONE',  ( -4.275831445896958607E-31, -1.000000000000000000, -1.224646799147353207E-16 ) ) ;
#82 = PERSON_AND_ORGANIZATION ( #170, #5 ) ;
#83 = ADVANCED_FACE ( 'NONE', ( #124 ), #2, .F. ) ;
#84 = LOCAL_TIME ( 10, 11, 55.00000000000000000, #15 ) ;
#85 = DIRECTION ( 'NONE',  ( 0.0000000000000000000, 1.000000000000000000, 0.0000000000000000000 ) ) ;
#86 = CC_DESIGN_PERSON_AND_ORGANIZATION_ASSIGNMENT ( #21, #111, ( #68 ) ) ;
#87 = AXIS2_PLACEMENT_3D ( 'NONE', #50, #115, #176 ) ;
#88 = DIRECTION ( 'NONE',  ( 0.0000000000000000000, 1.000000000000000000, 0.0000000000000000000 ) ) ;
#89 = COORDINATED_UNIVERSAL_TIME_OFFSET ( 1, 0, .AHEAD. ) ;
#90 = CARTESIAN_POINT ( 'NONE',  ( 1.319779946082704535E-13, -4.629164900776995227E-15, 37.79999999999999716 ) ) ;
#91 = ORIENTED_EDGE ( 'NONE', *, *, #51, .T. ) ;
#92 = PERSON_AND_ORGANIZATION ( #170, #5 ) ;
#93 = EDGE_LOOP ( 'NONE', ( #38 ) ) ;
#94 = DATE_TIME_ROLE ( 'classification_date' ) ;
#95 = FACE_OUTER_BOUND ( 'NONE', #183, .T. ) ;
#96 = DIRECTION ( 'NONE',  ( -3.491481338843133355E-15, 1.224646799147353207E-16, -1.000000000000000000 ) ) ;
#97 = ADVANCED_FACE ( 'NONE', ( #95, #147 ), #26, .T. ) ;
#98 = CONICAL_SURFACE ( 'NONE', #182, 0.7999999999999986011, 1.047197551196592968 ) ;
#99 = DIRECTION ( 'NONE',  ( -3.491481338843133355E-15, 1.224646799147353207E-16, -1.000000000000000000 ) ) ;
#100 = ADVANCED_FACE ( 'NONE', ( #190 ), #80, .F. ) ;
#101 = LOCAL_TIME ( 10, 11, 55.00000000000000000, #89 ) ;
#102 = VERTEX_POINT ( 'NONE', #11 ) ;
#103 = CALENDAR_DATE ( 2021, 8, 10 ) ;
#104 = AXIS2_PLACEMENT_3D ( 'NONE', #162, #69, #165 ) ;
#105 = DIRECTION ( 'NONE',  ( 0.0000000000000000000, 1.000000000000000000, 0.0000000000000000000 ) ) ;
#106 = CYLINDRICAL_SURFACE ( 'NONE', #47, 0.7999999999999998224 ) ;
#107 = APPLICATION_PROTOCOL_DEFINITION ( 'international standard', 'config_control_design', 1994, #117 ) ;
#108 = EDGE_LOOP ( 'NONE', ( #144 ) ) ;
#109 = EDGE_LOOP ( 'NONE', ( #91 ) ) ;
#110 = EDGE_CURVE ( 'NONE', #102, #102, #13, .T. ) ;
#111 = PERSON_AND_ORGANIZATION_ROLE ( 'design_supplier' ) ;
#112 = AXIS2_PLACEMENT_3D ( 'NONE', #24, #96, #85 ) ;
#113 = DIRECTION ( 'NONE',  ( 0.0000000000000000000, 1.000000000000000000, 0.0000000000000000000 ) ) ;
#114 = DATE_AND_TIME ( #194, #130 ) ;
#115 = DIRECTION ( 'NONE',  ( -3.491481338843133355E-15, 1.224646799147353207E-16, -1.000000000000000000 ) ) ;
#116 = ADVANCED_BREP_SHAPE_REPRESENTATION ( '55786', ( #187, #120, #155 ), #192 ) ;
#117 = APPLICATION_CONTEXT ( 'configuration controlled 3d designs of mechanical parts and assemblies' ) ;
#118 = VERTEX_POINT ( 'NONE', #215 ) ;
#119 = CIRCLE ( 'NONE', #74, 0.9999999999999970024 ) ;
#120 = MANIFOLD_SOLID_BREP ( 'Corps-Déplacer/Copier1[2]', #143 ) ;
#121 = CARTESIAN_POINT ( 'NONE',  ( 4.310726068062857675E-14, 0.9999999999999954481, 12.34641016151377535 ) ) ;
#122 = DIRECTION ( 'NONE',  ( -4.814824860968098391E-31, -1.000000000000000000, -1.355252715606883008E-16 ) ) ;
#123 = EDGE_CURVE ( 'NONE', #180, #180, #212, .T. ) ;
#124 = FACE_OUTER_BOUND ( 'NONE', #109, .T. ) ;
#125 = PERSON_AND_ORGANIZATION_ROLE ( 'creator' ) ;
#126 = ORIENTED_EDGE ( 'NONE', *, *, #27, .T. ) ;
#127 = CARTESIAN_POINT ( 'NONE',  ( 4.189777606611760026E-14, -1.469576158976823947E-15, 12.00000000000000000 ) ) ;
#128 = CALENDAR_DATE ( 2021, 8, 10 ) ;
#129 = DIRECTION ( 'NONE',  ( 4.275831445896958607E-31, 1.000000000000000000, 1.224646799147353207E-16 ) ) ;
#130 = LOCAL_TIME ( 10, 11, 55.00000000000000000, #184 ) ;
#131 = CARTESIAN_POINT ( 'NONE',  ( 4.189777606611760026E-14, 0.7999999999999994893, 12.00000000000000000 ) ) ;
#132 = LOCAL_TIME ( 10, 11, 55.00000000000000000, #137 ) ;
#133 = CC_DESIGN_DATE_AND_TIME_ASSIGNMENT ( #151, #152, ( #217 ) ) ;
#134 = PRODUCT ( '55786', '55786', '', ( #149 ) ) ;
#135 = VERTEX_POINT ( 'NONE', #121 ) ;
#136 = AXIS2_PLACEMENT_3D ( 'NONE', #78, #75, #145 ) ;
#137 = COORDINATED_UNIVERSAL_TIME_OFFSET ( 1, 0, .AHEAD. ) ;
#138 = CARTESIAN_POINT ( 'NONE',  ( 1.326762908760390423E-13, -4.653657836759941941E-15, 38.00000000000000000 ) ) ;
#139 = DIRECTION ( 'NONE',  ( 0.0000000000000000000, 1.000000000000000000, 0.0000000000000000000 ) ) ;
#140 = SHAPE_DEFINITION_REPRESENTATION ( #208, #116 ) ;
#141 = DIRECTION ( 'NONE',  ( 3.491481338843133355E-15, -1.224646799147353207E-16, 1.000000000000000000 ) ) ;
#142 = ADVANCED_FACE ( 'NONE', ( #33, #53 ), #154, .T. ) ;
#143 = CLOSED_SHELL ( 'NONE', ( #66, #168, #17 ) ) ;
#144 = ORIENTED_EDGE ( 'NONE', *, *, #110, .F. ) ;
#145 = DIRECTION ( 'NONE',  ( -4.275831445896958607E-31, -1.000000000000000000, -1.224646799147353207E-16 ) ) ;
#146 = AXIS2_PLACEMENT_3D ( 'NONE', #90, #186, #88 ) ;
#147 = FACE_OUTER_BOUND ( 'NONE', #157, .T. ) ;
#148 = CALENDAR_DATE ( 2021, 8, 10 ) ;
#149 = MECHANICAL_CONTEXT ( 'NONE', #117, 'mechanical' ) ;
#150 = CARTESIAN_POINT ( 'NONE',  ( 4.189777606611760026E-14, 5.999039130647415378E-33, 12.00000000000000000 ) ) ;
#151 = DATE_AND_TIME ( #148, #72 ) ;
#152 = DATE_TIME_ROLE ( 'creation_date' ) ;
#153 =( NAMED_UNIT ( * ) SI_UNIT ( $, .STERADIAN. ) SOLID_ANGLE_UNIT ( ) );
#154 = CONICAL_SURFACE ( 'NONE', #6, 0.8000000000000009326, 0.7853981633974512766 ) ;
#155 = AXIS2_PLACEMENT_3D ( 'NONE', #175, #49, #23 ) ;
#156 = DIRECTION ( 'NONE',  ( -3.491481338843133355E-15, 1.224646799147353207E-16, -1.000000000000000000 ) ) ;
#157 = EDGE_LOOP ( 'NONE', ( #202 ) ) ;
#158 = DATE_AND_TIME ( #103, #84 ) ;
#159 = DATE_AND_TIME ( #40, #101 ) ;
#160 = EDGE_LOOP ( 'NONE', ( #197 ) ) ;
#161 = CARTESIAN_POINT ( 'NONE',  ( 4.310726068062857675E-14, -1.511999168525819997E-15, 12.34641016151377535 ) ) ;
#162 = CARTESIAN_POINT ( 'NONE',  ( 0.0000000000000000000, 0.0000000000000000000, 0.0000000000000000000 ) ) ;
#163 = CC_DESIGN_APPROVAL ( #3, ( #217 ) ) ;
#164 = APPROVAL_DATE_TIME ( #206, #3 ) ;
#165 = DIRECTION ( 'NONE',  ( 4.275831445896957731E-31, 1.000000000000000000, 1.224646799147353454E-16 ) ) ;
#166 = DIRECTION ( 'NONE',  ( -3.491481338843133355E-15, 1.224646799147353207E-16, -1.000000000000000000 ) ) ;
#167 = AXIS2_PLACEMENT_3D ( 'NONE', #127, #156, #105 ) ;
#168 = ADVANCED_FACE ( 'NONE', ( #4, #198 ), #106, .T. ) ;
#169 = EDGE_LOOP ( 'NONE', ( #173 ) ) ;
#170 = PERSON ( 'UNSPECIFIED', 'UNSPECIFIED', 'UNSPECIFIED', ('UNSPECIFIED'), ('UNSPECIFIED'), ('UNSPECIFIED') ) ;
#171 = EDGE_LOOP ( 'NONE', ( #60 ) ) ;
#172 = APPROVAL_PERSON_ORGANIZATION ( #35, #48, #42 ) ;
#173 = ORIENTED_EDGE ( 'NONE', *, *, #123, .F. ) ;
#174 = DIRECTION ( 'NONE',  ( -3.491481338843133355E-15, 1.224646799147353207E-16, -1.000000000000000000 ) ) ;
#175 = CARTESIAN_POINT ( 'NONE',  ( 0.0000000000000000000, 0.0000000000000000000, 0.0000000000000000000 ) ) ;
#176 = DIRECTION ( 'NONE',  ( 4.814824860968098391E-31, 1.000000000000000000, 1.355252715606883008E-16 ) ) ;
#177 = COORDINATED_UNIVERSAL_TIME_OFFSET ( 1, 0, .AHEAD. ) ;
#178 = AXIS2_PLACEMENT_3D ( 'NONE', #44, #166, #139 ) ;
#179 = APPROVAL_STATUS ( 'not_yet_approved' ) ;
#180 = VERTEX_POINT ( 'NONE', #36 ) ;
#181 = SECURITY_CLASSIFICATION_LEVEL ( 'unclassified' ) ;
#182 = AXIS2_PLACEMENT_3D ( 'NONE', #43, #141, #122 ) ;
#183 = EDGE_LOOP ( 'NONE', ( #62 ) ) ;
#184 = COORDINATED_UNIVERSAL_TIME_OFFSET ( 1, 0, .AHEAD. ) ;
#185 = ORIENTED_EDGE ( 'NONE', *, *, #77, .T. ) ;
#186 = DIRECTION ( 'NONE',  ( -3.491481338843133355E-15, 1.224646799147353207E-16, -1.000000000000000000 ) ) ;
#187 = MANIFOLD_SOLID_BREP ( 'Corps-Déplacer/Copier1[1]', #209 ) ;
#188 = PERSON_AND_ORGANIZATION_ROLE ( 'creator' ) ;
#189 = CC_DESIGN_APPROVAL ( #48, ( #68 ) ) ;
#190 = FACE_OUTER_BOUND ( 'NONE', #169, .T. ) ;
#191 = VERTEX_POINT ( 'NONE', #30 ) ;
#192 =( GEOMETRIC_REPRESENTATION_CONTEXT ( 3 ) GLOBAL_UNCERTAINTY_ASSIGNED_CONTEXT ( ( #7 ) ) GLOBAL_UNIT_ASSIGNED_CONTEXT ( ( #9, #196, #153 ) ) REPRESENTATION_CONTEXT ( 'NONE', 'WORKASPACE' ) );
#193 = CIRCLE ( 'NONE', #178, 0.8000000000000010436 ) ;
#194 = CALENDAR_DATE ( 2021, 8, 10 ) ;
#195 = FACE_OUTER_BOUND ( 'NONE', #56, .T. ) ;
#196 =( NAMED_UNIT ( * ) PLANE_ANGLE_UNIT ( ) SI_UNIT ( $, .RADIAN. ) );
#197 = ORIENTED_EDGE ( 'NONE', *, *, #123, .T. ) ;
#198 = FACE_OUTER_BOUND ( 'NONE', #222, .T. ) ;
#199 = APPROVAL_PERSON_ORGANIZATION ( #59, #210, #76 ) ;
#200 = DIRECTION ( 'NONE',  ( -3.491481338843133355E-15, 1.224646799147353207E-16, -1.000000000000000000 ) ) ;
#201 = ADVANCED_FACE ( 'NONE', ( #45, #64 ), #79, .T. ) ;
#202 = ORIENTED_EDGE ( 'NONE', *, *, #34, .T. ) ;
#203 = DIRECTION ( 'NONE',  ( 0.0000000000000000000, 1.000000000000000000, 0.0000000000000000000 ) ) ;
#204 = AXIS2_PLACEMENT_3D ( 'NONE', #161, #1, #67 ) ;
#205 = CARTESIAN_POINT ( 'NONE',  ( 1.326762908760390423E-13, 5.999039130647367482E-33, 38.00000000000000000 ) ) ;
#206 = DATE_AND_TIME ( #128, #132 ) ;
#207 = CC_DESIGN_PERSON_AND_ORGANIZATION_ASSIGNMENT ( #82, #188, ( #217 ) ) ;
#208 = PRODUCT_DEFINITION_SHAPE ( 'NONE', 'NONE',  #217 ) ;
#209 = CLOSED_SHELL ( 'NONE', ( #83, #201, #97, #142, #100 ) ) ;
#210 = APPROVAL ( #14, 'UNSPECIFIED' ) ;
#211 = DESIGN_CONTEXT ( 'detailed design', #73, 'design' ) ;
#212 = CIRCLE ( 'NONE', #112, 0.8000000000000009326 ) ;
#213 = PERSON_AND_ORGANIZATION ( #170, #5 ) ;
#214 = CC_DESIGN_DATE_AND_TIME_ASSIGNMENT ( #158, #94, ( #55 ) ) ;
#215 = CARTESIAN_POINT ( 'NONE',  ( 4.189777606611760026E-14, 0.7999999999999994893, 12.00000000000000000 ) ) ;
#216 = APPROVAL_ROLE ( '' ) ;
#217 = PRODUCT_DEFINITION ( 'UNKNOWN', '', #68, #211 ) ;
#218 = ORIENTED_EDGE ( 'NONE', *, *, #51, .F. ) ;
#219 = APPROVAL_DATE_TIME ( #159, #210 ) ;
#220 = PLANE ( 'NONE',  #136 ) ;
#221 = CC_DESIGN_SECURITY_CLASSIFICATION ( #55, ( #68 ) ) ;
#222 = EDGE_LOOP ( 'NONE', ( #126 ) ) ;
#223 = ORIENTED_EDGE ( 'NONE', *, *, #27, .F. ) ;
ENDSEC;
END-ISO-10303-21;
