ISO-10303-21;
HEADER;
FILE_DESCRIPTION (( 'STEP AP203' ),
    '1' );
FILE_NAME ('55782.step',
    '2021-10-08T08:11:54',
    ( '' ),
    ( '' ),
    'SwSTEP 2.0',
    'SolidWorks 2019',
    '' );
FILE_SCHEMA (( 'CONFIG_CONTROL_DESIGN' ));
ENDSEC;

DATA;
#1 =( NAMED_UNIT ( * ) PLANE_ANGLE_UNIT ( ) SI_UNIT ( $, .RADIAN. ) );
#2 =( LENGTH_UNIT ( ) NAMED_UNIT ( * ) SI_UNIT ( .MILLI., .METRE. ) );
#3 = AXIS2_PLACEMENT_3D ( 'NONE', #153, #38, #185 ) ;
#4 = ORIENTED_EDGE ( 'NONE', *, *, #13, .F. ) ;
#5 = AXIS2_PLACEMENT_3D ( 'NONE', #107, #217, #122 ) ;
#6 = APPROVAL ( #18, 'UNSPECIFIED' ) ;
#7 = PLANE ( 'NONE',  #158 ) ;
#8 = VERTEX_POINT ( 'NONE', #49 ) ;
#9 = CARTESIAN_POINT ( 'NONE',  ( 4.189777606611760026E-14, 0.7749999999999979128, 12.00000000000000000 ) ) ;
#10 = CIRCLE ( 'NONE', #94, 0.8000000000000009326 ) ;
#11 = VERTEX_POINT ( 'NONE', #77 ) ;
#12 = PERSON_AND_ORGANIZATION ( #76, #169 ) ;
#13 = EDGE_CURVE ( 'NONE', #96, #96, #195, .T. ) ;
#14 = APPROVAL_DATE_TIME ( #114, #138 ) ;
#15 = PERSON_AND_ORGANIZATION ( #76, #169 ) ;
#16 = AXIS2_PLACEMENT_3D ( 'NONE', #55, #79, #30 ) ;
#17 = CARTESIAN_POINT ( 'NONE',  ( 4.325844625744245197E-14, 0.9999999999999954481, 12.38971143170299705 ) ) ;
#18 = APPROVAL_STATUS ( 'not_yet_approved' ) ;
#19 = CIRCLE ( 'NONE', #172, 0.9999999999999970024 ) ;
#20 = EDGE_LOOP ( 'NONE', ( #194 ) ) ;
#21 = EDGE_CURVE ( 'NONE', #11, #11, #103, .T. ) ;
#22 = EDGE_LOOP ( 'NONE', ( #135 ) ) ;
#23 = EDGE_LOOP ( 'NONE', ( #4 ) ) ;
#24 = APPROVAL_DATE_TIME ( #50, #6 ) ;
#25 = CARTESIAN_POINT ( 'NONE',  ( 4.325844625744245197E-14, -1.517302044719444626E-15, 12.38971143170299705 ) ) ;
#26 = DIRECTION ( 'NONE',  ( -3.491481338843133355E-15, 1.224646799147353207E-16, -1.000000000000000000 ) ) ;
#27 = VERTEX_POINT ( 'NONE', #93 ) ;
#28 = AXIS2_PLACEMENT_3D ( 'NONE', #75, #61, #196 ) ;
#29 = PERSON_AND_ORGANIZATION ( #76, #169 ) ;
#30 = DIRECTION ( 'NONE',  ( -4.970141791967068770E-31, -1.000000000000000000, -1.398970545142588760E-16 ) ) ;
#31 = DATE_AND_TIME ( #179, #39 ) ;
#32 = DIRECTION ( 'NONE',  ( -3.491481338843133355E-15, 1.224646799147353207E-16, -1.000000000000000000 ) ) ;
#33 = PERSON_AND_ORGANIZATION_ROLE ( 'creator' ) ;
#34 = ADVANCED_FACE ( 'NONE', ( #218 ), #7, .F. ) ;
#35 = APPROVAL_ROLE ( '' ) ;
#36 = APPROVAL_ROLE ( '' ) ;
#37 = DIRECTION ( 'NONE',  ( 3.491481338843133355E-15, -1.224646799147353207E-16, 1.000000000000000000 ) ) ;
#38 = DIRECTION ( 'NONE',  ( -3.491481338843133355E-15, 1.224646799147353207E-16, -1.000000000000000000 ) ) ;
#39 = LOCAL_TIME ( 10, 11, 54.00000000000000000, #143 ) ;
#40 = EDGE_CURVE ( 'NONE', #147, #147, #10, .T. ) ;
#41 = CARTESIAN_POINT ( 'NONE',  ( 1.562250960410034436E-15, -5.479638733412072144E-17, 0.4474464586219642492 ) ) ;
#42 = MECHANICAL_CONTEXT ( 'NONE', #86, 'mechanical' ) ;
#43 = CC_DESIGN_PERSON_AND_ORGANIZATION_ASSIGNMENT ( #64, #98, ( #220 ) ) ;
#44 = MANIFOLD_SOLID_BREP ( 'Corps-Déplacer/Copier1[2]', #202 ) ;
#45 = AXIS2_PLACEMENT_3D ( 'NONE', #208, #118, #190 ) ;
#46 = FACE_OUTER_BOUND ( 'NONE', #160, .T. ) ;
#47 = CYLINDRICAL_SURFACE ( 'NONE', #69, 0.9999999999999988898 ) ;
#48 = APPLICATION_PROTOCOL_DEFINITION ( 'international standard', 'config_control_design', 1994, #52 ) ;
#49 = CARTESIAN_POINT ( 'NONE',  ( 1.319779946082704535E-13, 0.9999999999999963363, 37.79999999999999716 ) ) ;
#50 = DATE_AND_TIME ( #157, #187 ) ;
#51 = CC_DESIGN_PERSON_AND_ORGANIZATION_ASSIGNMENT ( #174, #72, ( #177 ) ) ;
#52 = APPLICATION_CONTEXT ( 'configuration controlled 3d designs of mechanical parts and assemblies' ) ;
#53 = PERSON_AND_ORGANIZATION ( #76, #169 ) ;
#54 = APPROVAL_STATUS ( 'not_yet_approved' ) ;
#55 = CARTESIAN_POINT ( 'NONE',  ( 1.562250960410034436E-15, -5.479638733412072144E-17, 0.4474464586219642492 ) ) ;
#56 = CC_DESIGN_APPROVAL ( #138, ( #220 ) ) ;
#57 = CARTESIAN_POINT ( 'NONE',  ( 1.326762908760390423E-13, -4.653657836759941941E-15, 38.00000000000000000 ) ) ;
#58 = EDGE_LOOP ( 'NONE', ( #173 ) ) ;
#59 = CARTESIAN_POINT ( 'NONE',  ( 4.325844625744245197E-14, -1.517302044719444626E-15, 12.38971143170299705 ) ) ;
#60 = CARTESIAN_POINT ( 'NONE',  ( 4.189777606611760026E-14, 5.811569157814671545E-33, 12.00000000000000000 ) ) ;
#61 = DIRECTION ( 'NONE',  ( -3.491481338843133355E-15, 1.224646799147353207E-16, -1.000000000000000000 ) ) ;
#62 = CONICAL_SURFACE ( 'NONE', #146, 0.9999999999999970024, 0.5235987755982943748 ) ;
#63 = ADVANCED_FACE ( 'NONE', ( #125 ), #165, .F. ) ;
#64 = PERSON_AND_ORGANIZATION ( #76, #169 ) ;
#65 = ADVANCED_FACE ( 'NONE', ( #213, #92 ), #167, .T. ) ;
#66 = DIRECTION ( 'NONE',  ( 0.0000000000000000000, 1.000000000000000000, 0.0000000000000000000 ) ) ;
#67 = FACE_OUTER_BOUND ( 'NONE', #73, .T. ) ;
#68 = UNCERTAINTY_MEASURE_WITH_UNIT (LENGTH_MEASURE( 1.000000000000000082E-05 ), #2, 'distance_accuracy_value', 'NONE');
#69 = AXIS2_PLACEMENT_3D ( 'NONE', #178, #26, #128 ) ;
#70 = ORIENTED_EDGE ( 'NONE', *, *, #40, .F. ) ;
#71 = APPROVAL_PERSON_ORGANIZATION ( #29, #162, #117 ) ;
#72 = PERSON_AND_ORGANIZATION_ROLE ( 'creator' ) ;
#73 = EDGE_LOOP ( 'NONE', ( #139 ) ) ;
#74 = ORIENTED_EDGE ( 'NONE', *, *, #40, .T. ) ;
#75 = CARTESIAN_POINT ( 'NONE',  ( 4.189777606611760026E-14, -1.469576158976823947E-15, 12.00000000000000000 ) ) ;
#76 = PERSON ( 'UNSPECIFIED', 'UNSPECIFIED', 'UNSPECIFIED', ('UNSPECIFIED'), ('UNSPECIFIED'), ('UNSPECIFIED') ) ;
#77 = CARTESIAN_POINT ( 'NONE',  ( 1.562250960410034830E-15, 0.7749999999999985789, 0.4474464586219643603 ) ) ;
#78 = EDGE_CURVE ( 'NONE', #27, #27, #119, .T. ) ;
#79 = DIRECTION ( 'NONE',  ( 3.491481338843133355E-15, -1.224646799147353207E-16, 1.000000000000000000 ) ) ;
#80 = DESIGN_CONTEXT ( 'detailed design', #52, 'design' ) ;
#81 = CARTESIAN_POINT ( 'NONE',  ( 1.326762908760390423E-13, 5.999039130647367482E-33, 38.00000000000000000 ) ) ;
#82 = PERSON_AND_ORGANIZATION_ROLE ( 'classification_officer' ) ;
#83 = SECURITY_CLASSIFICATION_LEVEL ( 'unclassified' ) ;
#84 = CIRCLE ( 'NONE', #209, 1.000000000000000888 ) ;
#85 = COORDINATED_UNIVERSAL_TIME_OFFSET ( 1, 0, .AHEAD. ) ;
#86 = APPLICATION_CONTEXT ( 'configuration controlled 3d designs of mechanical parts and assemblies' ) ;
#87 = ORIENTED_EDGE ( 'NONE', *, *, #223, .T. ) ;
#88 = DIRECTION ( 'NONE',  ( -4.275831445896958607E-31, -1.000000000000000000, -1.224646799147353207E-16 ) ) ;
#89 = ORIENTED_EDGE ( 'NONE', *, *, #78, .F. ) ;
#90 = ADVANCED_FACE ( 'NONE', ( #164, #145 ), #47, .T. ) ;
#91 = CC_DESIGN_APPROVAL ( #6, ( #176 ) ) ;
#92 = FACE_BOUND ( 'NONE', #121, .T. ) ;
#93 = CARTESIAN_POINT ( 'NONE',  ( 4.189777606611760026E-14, 0.7749999999999979128, 12.00000000000000000 ) ) ;
#94 = AXIS2_PLACEMENT_3D ( 'NONE', #57, #95, #166 ) ;
#95 = DIRECTION ( 'NONE',  ( -3.491481338843133355E-15, 1.224646799147353207E-16, -1.000000000000000000 ) ) ;
#96 = VERTEX_POINT ( 'NONE', #9 ) ;
#97 =( GEOMETRIC_REPRESENTATION_CONTEXT ( 3 ) GLOBAL_UNCERTAINTY_ASSIGNED_CONTEXT ( ( #68 ) ) GLOBAL_UNIT_ASSIGNED_CONTEXT ( ( #2, #1, #201 ) ) REPRESENTATION_CONTEXT ( 'NONE', 'WORKASPACE' ) );
#98 = PERSON_AND_ORGANIZATION_ROLE ( 'design_supplier' ) ;
#99 = CARTESIAN_POINT ( 'NONE',  ( 1.319779946082704535E-13, -4.629164900776995227E-15, 37.79999999999999716 ) ) ;
#100 = DIRECTION ( 'NONE',  ( -3.491481338843133355E-15, 1.224646799147353207E-16, -1.000000000000000000 ) ) ;
#101 = DATE_AND_TIME ( #156, #148 ) ;
#102 = DATE_TIME_ROLE ( 'creation_date' ) ;
#103 = CIRCLE ( 'NONE', #222, 0.7749999999999986899 ) ;
#104 = EDGE_LOOP ( 'NONE', ( #212 ) ) ;
#105 = AXIS2_PLACEMENT_3D ( 'NONE', #81, #151, #150 ) ;
#106 = PRODUCT_RELATED_PRODUCT_CATEGORY ( 'detail', '', ( #214 ) ) ;
#107 = CARTESIAN_POINT ( 'NONE',  ( 1.326762908760390423E-13, -4.653657836759941941E-15, 38.00000000000000000 ) ) ;
#108 = CARTESIAN_POINT ( 'NONE',  ( 1.326762908760390423E-13, 0.7999999999999962697, 38.00000000000000000 ) ) ;
#109 = CONICAL_SURFACE ( 'NONE', #16, 0.7749999999999986899, 1.047197551196592968 ) ;
#110 = DIRECTION ( 'NONE',  ( 3.491481338843133355E-15, -1.224646799147353207E-16, 1.000000000000000000 ) ) ;
#111 = CLOSED_SHELL ( 'NONE', ( #34, #210, #90, #65, #63 ) ) ;
#112 = ADVANCED_FACE ( 'NONE', ( #67, #113 ), #203, .T. ) ;
#113 = FACE_OUTER_BOUND ( 'NONE', #20, .T. ) ;
#114 = DATE_AND_TIME ( #183, #152 ) ;
#115 = CC_DESIGN_PERSON_AND_ORGANIZATION_ASSIGNMENT ( #12, #33, ( #220 ) ) ;
#116 = APPROVAL_PERSON_ORGANIZATION ( #15, #138, #36 ) ;
#117 = APPROVAL_ROLE ( '' ) ;
#118 = DIRECTION ( 'NONE',  ( -3.491481338843133355E-15, 1.224646799147353207E-16, -1.000000000000000000 ) ) ;
#119 = CIRCLE ( 'NONE', #28, 0.7749999999999994671 ) ;
#120 = DIRECTION ( 'NONE',  ( -3.491481338843133355E-15, 1.224646799147353207E-16, -1.000000000000000000 ) ) ;
#121 = EDGE_LOOP ( 'NONE', ( #74 ) ) ;
#122 = DIRECTION ( 'NONE',  ( 0.0000000000000000000, 1.000000000000000000, 0.0000000000000000000 ) ) ;
#123 = AXIS2_PLACEMENT_3D ( 'NONE', #155, #126, #182 ) ;
#124 = APPROVAL_PERSON_ORGANIZATION ( #134, #6, #35 ) ;
#125 = FACE_OUTER_BOUND ( 'NONE', #163, .T. ) ;
#126 = DIRECTION ( 'NONE',  ( 3.491481338843133355E-15, -1.224646799147353207E-16, 1.000000000000000000 ) ) ;
#127 = EDGE_CURVE ( 'NONE', #8, #8, #84, .T. ) ;
#128 = DIRECTION ( 'NONE',  ( 4.275831445896957731E-31, 1.000000000000000000, 1.224646799147353454E-16 ) ) ;
#129 = DIRECTION ( 'NONE',  ( 0.0000000000000000000, 1.000000000000000000, 0.0000000000000000000 ) ) ;
#130 = CC_DESIGN_APPROVAL ( #162, ( #177 ) ) ;
#131 = PERSON_AND_ORGANIZATION ( #76, #169 ) ;
#132 = FACE_BOUND ( 'NONE', #23, .T. ) ;
#133 = FACE_OUTER_BOUND ( 'NONE', #207, .T. ) ;
#134 = PERSON_AND_ORGANIZATION ( #76, #169 ) ;
#135 = ORIENTED_EDGE ( 'NONE', *, *, #13, .T. ) ;
#136 = APPROVAL_DATE_TIME ( #140, #162 ) ;
#137 = APPLICATION_PROTOCOL_DEFINITION ( 'international standard', 'config_control_design', 1994, #86 ) ;
#138 = APPROVAL ( #54, 'UNSPECIFIED' ) ;
#139 = ORIENTED_EDGE ( 'NONE', *, *, #21, .F. ) ;
#140 = DATE_AND_TIME ( #206, #198 ) ;
#141 = AXIS2_PLACEMENT_3D ( 'NONE', #192, #170, #205 ) ;
#142 = EDGE_LOOP ( 'NONE', ( #161 ) ) ;
#143 = COORDINATED_UNIVERSAL_TIME_OFFSET ( 1, 0, .AHEAD. ) ;
#144 = EDGE_LOOP ( 'NONE', ( #197 ) ) ;
#145 = FACE_OUTER_BOUND ( 'NONE', #144, .T. ) ;
#146 = AXIS2_PLACEMENT_3D ( 'NONE', #59, #110, #215 ) ;
#147 = VERTEX_POINT ( 'NONE', #108 ) ;
#148 = LOCAL_TIME ( 10, 11, 54.00000000000000000, #221 ) ;
#149 = ADVANCED_BREP_SHAPE_REPRESENTATION ( '55782', ( #188, #44, #141 ), #97 ) ;
#150 = DIRECTION ( 'NONE',  ( 4.275831445896958607E-31, 1.000000000000000000, 1.224646799147353207E-16 ) ) ;
#151 = DIRECTION ( 'NONE',  ( -3.491481338843133355E-15, 1.224646799147353207E-16, -1.000000000000000000 ) ) ;
#152 = LOCAL_TIME ( 10, 11, 54.00000000000000000, #199 ) ;
#153 = CARTESIAN_POINT ( 'NONE',  ( 0.0000000000000000000, 0.0000000000000000000, 0.0000000000000000000 ) ) ;
#154 = CC_DESIGN_PERSON_AND_ORGANIZATION_ASSIGNMENT ( #53, #82, ( #176 ) ) ;
#155 = CARTESIAN_POINT ( 'NONE',  ( 4.189777606611760026E-14, 5.811569157814671545E-33, 12.00000000000000000 ) ) ;
#156 = CALENDAR_DATE ( 2021, 8, 10 ) ;
#157 = CALENDAR_DATE ( 2021, 8, 10 ) ;
#158 = AXIS2_PLACEMENT_3D ( 'NONE', #60, #37, #88 ) ;
#159 = APPROVAL_STATUS ( 'not_yet_approved' ) ;
#160 = EDGE_LOOP ( 'NONE', ( #87 ) ) ;
#161 = ORIENTED_EDGE ( 'NONE', *, *, #223, .F. ) ;
#162 = APPROVAL ( #159, 'UNSPECIFIED' ) ;
#163 = EDGE_LOOP ( 'NONE', ( #70 ) ) ;
#164 = FACE_OUTER_BOUND ( 'NONE', #142, .T. ) ;
#165 = PLANE ( 'NONE',  #105 ) ;
#166 = DIRECTION ( 'NONE',  ( 0.0000000000000000000, 1.000000000000000000, 0.0000000000000000000 ) ) ;
#167 = CONICAL_SURFACE ( 'NONE', #5, 0.8000000000000009326, 0.7853981633974512766 ) ;
#168 = ADVANCED_FACE ( 'NONE', ( #204 ), #109, .T. ) ;
#169 = ORGANIZATION ( 'UNSPECIFIED', 'UNSPECIFIED', '' ) ;
#170 = DIRECTION ( 'NONE',  ( 0.0000000000000000000, 0.0000000000000000000, 1.000000000000000000 ) ) ;
#171 = CC_DESIGN_DATE_AND_TIME_ASSIGNMENT ( #31, #102, ( #177 ) ) ;
#172 = AXIS2_PLACEMENT_3D ( 'NONE', #25, #32, #129 ) ;
#173 = ORIENTED_EDGE ( 'NONE', *, *, #21, .T. ) ;
#174 = PERSON_AND_ORGANIZATION ( #76, #169 ) ;
#175 = SHAPE_DEFINITION_REPRESENTATION ( #211, #149 ) ;
#176 = SECURITY_CLASSIFICATION ( '', '', #83 ) ;
#177 = PRODUCT_DEFINITION ( 'UNKNOWN', '', #220, #80 ) ;
#178 = CARTESIAN_POINT ( 'NONE',  ( 0.0000000000000000000, 0.0000000000000000000, 0.0000000000000000000 ) ) ;
#179 = CALENDAR_DATE ( 2021, 8, 10 ) ;
#180 = VERTEX_POINT ( 'NONE', #17 ) ;
#181 = CC_DESIGN_PERSON_AND_ORGANIZATION_ASSIGNMENT ( #131, #219, ( #214 ) ) ;
#182 = DIRECTION ( 'NONE',  ( -4.275831445896958607E-31, -1.000000000000000000, -1.224646799147353207E-16 ) ) ;
#183 = CALENDAR_DATE ( 2021, 8, 10 ) ;
#184 = CC_DESIGN_SECURITY_CLASSIFICATION ( #176, ( #220 ) ) ;
#185 = DIRECTION ( 'NONE',  ( 4.275831445896958607E-31, 1.000000000000000000, 1.224646799147353207E-16 ) ) ;
#186 = DATE_TIME_ROLE ( 'classification_date' ) ;
#187 = LOCAL_TIME ( 10, 11, 54.00000000000000000, #85 ) ;
#188 = MANIFOLD_SOLID_BREP ( 'Corps-Déplacer/Copier1[1]', #111 ) ;
#189 = CC_DESIGN_DATE_AND_TIME_ASSIGNMENT ( #101, #186, ( #176 ) ) ;
#190 = DIRECTION ( 'NONE',  ( 0.0000000000000000000, 1.000000000000000000, 0.0000000000000000000 ) ) ;
#191 = COORDINATED_UNIVERSAL_TIME_OFFSET ( 1, 0, .AHEAD. ) ;
#192 = CARTESIAN_POINT ( 'NONE',  ( 0.0000000000000000000, 0.0000000000000000000, 0.0000000000000000000 ) ) ;
#193 = DIRECTION ( 'NONE',  ( 4.970141791967068770E-31, 1.000000000000000000, 1.398970545142588760E-16 ) ) ;
#194 = ORIENTED_EDGE ( 'NONE', *, *, #78, .T. ) ;
#195 = CIRCLE ( 'NONE', #45, 0.7749999999999994671 ) ;
#196 = DIRECTION ( 'NONE',  ( 0.0000000000000000000, 1.000000000000000000, 0.0000000000000000000 ) ) ;
#197 = ORIENTED_EDGE ( 'NONE', *, *, #127, .T. ) ;
#198 = LOCAL_TIME ( 10, 11, 54.00000000000000000, #191 ) ;
#199 = COORDINATED_UNIVERSAL_TIME_OFFSET ( 1, 0, .AHEAD. ) ;
#200 = PLANE ( 'NONE',  #123 ) ;
#201 =( NAMED_UNIT ( * ) SI_UNIT ( $, .STERADIAN. ) SOLID_ANGLE_UNIT ( ) );
#202 = CLOSED_SHELL ( 'NONE', ( #168, #112, #216 ) ) ;
#203 = CYLINDRICAL_SURFACE ( 'NONE', #3, 0.7749999999999990230 ) ;
#204 = FACE_OUTER_BOUND ( 'NONE', #58, .T. ) ;
#205 = DIRECTION ( 'NONE',  ( 1.000000000000000000, 0.0000000000000000000, 0.0000000000000000000 ) ) ;
#206 = CALENDAR_DATE ( 2021, 8, 10 ) ;
#207 = EDGE_LOOP ( 'NONE', ( #89 ) ) ;
#208 = CARTESIAN_POINT ( 'NONE',  ( 4.189777606611760026E-14, -1.469576158976823947E-15, 12.00000000000000000 ) ) ;
#209 = AXIS2_PLACEMENT_3D ( 'NONE', #99, #100, #66 ) ;
#210 = ADVANCED_FACE ( 'NONE', ( #132, #46 ), #62, .T. ) ;
#211 = PRODUCT_DEFINITION_SHAPE ( 'NONE', 'NONE',  #177 ) ;
#212 = ORIENTED_EDGE ( 'NONE', *, *, #127, .F. ) ;
#213 = FACE_OUTER_BOUND ( 'NONE', #104, .T. ) ;
#214 = PRODUCT ( '55782', '55782', '', ( #42 ) ) ;
#215 = DIRECTION ( 'NONE',  ( 0.0000000000000000000, -1.000000000000000000, 0.0000000000000000000 ) ) ;
#216 = ADVANCED_FACE ( 'NONE', ( #133 ), #200, .T. ) ;
#217 = DIRECTION ( 'NONE',  ( -3.491481338843133355E-15, 1.224646799147353207E-16, -1.000000000000000000 ) ) ;
#218 = FACE_OUTER_BOUND ( 'NONE', #22, .T. ) ;
#219 = PERSON_AND_ORGANIZATION_ROLE ( 'design_owner' ) ;
#220 = PRODUCT_DEFINITION_FORMATION_WITH_SPECIFIED_SOURCE ( 'ANY', '', #214, .NOT_KNOWN. ) ;
#221 = COORDINATED_UNIVERSAL_TIME_OFFSET ( 1, 0, .AHEAD. ) ;
#222 = AXIS2_PLACEMENT_3D ( 'NONE', #41, #120, #193 ) ;
#223 = EDGE_CURVE ( 'NONE', #180, #180, #19, .T. ) ;
ENDSEC;
END-ISO-10303-21;
