ISO-10303-21;
HEADER;
FILE_DESCRIPTION (( 'STEP AP203' ),
    '1' );
FILE_NAME ('55780.step',
    '2021-10-08T08:11:52',
    ( '' ),
    ( '' ),
    'SwSTEP 2.0',
    'SolidWorks 2019',
    '' );
FILE_SCHEMA (( 'CONFIG_CONTROL_DESIGN' ));
ENDSEC;

DATA;
#1 = PLANE ( 'NONE',  #187 ) ;
#2 = ORIENTED_EDGE ( 'NONE', *, *, #220, .T. ) ;
#3 = DIRECTION ( 'NONE',  ( -4.275831445896958607E-31, -1.000000000000000000, -1.224646799147353207E-16 ) ) ;
#4 = APPROVAL ( #164, 'UNSPECIFIED' ) ;
#5 = PRODUCT_RELATED_PRODUCT_CATEGORY ( 'detail', '', ( #89 ) ) ;
#6 = MECHANICAL_CONTEXT ( 'NONE', #152, 'mechanical' ) ;
#7 = DATE_AND_TIME ( #169, #203 ) ;
#8 = VERTEX_POINT ( 'NONE', #105 ) ;
#9 = EDGE_CURVE ( 'NONE', #120, #120, #143, .T. ) ;
#10 = VERTEX_POINT ( 'NONE', #52 ) ;
#11 = CLOSED_SHELL ( 'NONE', ( #126, #165, #155 ) ) ;
#12 = DESIGN_CONTEXT ( 'detailed design', #116, 'design' ) ;
#13 = CC_DESIGN_PERSON_AND_ORGANIZATION_ASSIGNMENT ( #72, #34, ( #110 ) ) ;
#14 = ADVANCED_BREP_SHAPE_REPRESENTATION ( '55780', ( #43, #113, #28 ), #162 ) ;
#15 = SHAPE_DEFINITION_REPRESENTATION ( #65, #14 ) ;
#16 = CALENDAR_DATE ( 2021, 8, 10 ) ;
#17 = FACE_OUTER_BOUND ( 'NONE', #144, .T. ) ;
#18 = EDGE_LOOP ( 'NONE', ( #108 ) ) ;
#19 = PERSON ( 'UNSPECIFIED', 'UNSPECIFIED', 'UNSPECIFIED', ('UNSPECIFIED'), ('UNSPECIFIED'), ('UNSPECIFIED') ) ;
#20 = APPLICATION_PROTOCOL_DEFINITION ( 'international standard', 'config_control_design', 1994, #152 ) ;
#21 = ORIENTED_EDGE ( 'NONE', *, *, #168, .F. ) ;
#22 = FACE_OUTER_BOUND ( 'NONE', #94, .T. ) ;
#23 = CARTESIAN_POINT ( 'NONE',  ( 3.910459099504309358E-14, -1.371604415045035513E-15, 11.19999999999999929 ) ) ;
#24 = DIRECTION ( 'NONE',  ( 5.135813185032639159E-31, 1.000000000000000000, 1.445602896647342121E-16 ) ) ;
#25 = FACE_OUTER_BOUND ( 'NONE', #93, .T. ) ;
#26 = VERTEX_POINT ( 'NONE', #133 ) ;
#27 = DIRECTION ( 'NONE',  ( 0.0000000000000000000, 1.000000000000000000, 0.0000000000000000000 ) ) ;
#28 = AXIS2_PLACEMENT_3D ( 'NONE', #195, #209, #51 ) ;
#29 = COORDINATED_UNIVERSAL_TIME_OFFSET ( 1, 0, .AHEAD. ) ;
#30 = DIRECTION ( 'NONE',  ( -5.135813185032639159E-31, -1.000000000000000000, -1.445602896647342121E-16 ) ) ;
#31 = DATE_TIME_ROLE ( 'classification_date' ) ;
#32 = VERTEX_POINT ( 'NONE', #103 ) ;
#33 = CC_DESIGN_APPROVAL ( #128, ( #215 ) ) ;
#34 = PERSON_AND_ORGANIZATION_ROLE ( 'creator' ) ;
#35 = AXIS2_PLACEMENT_3D ( 'NONE', #153, #101, #53 ) ;
#36 = DATE_TIME_ROLE ( 'creation_date' ) ;
#37 = CARTESIAN_POINT ( 'NONE',  ( 0.0000000000000000000, 0.0000000000000000000, 0.0000000000000000000 ) ) ;
#38 = APPROVAL_STATUS ( 'not_yet_approved' ) ;
#39 = DIRECTION ( 'NONE',  ( 4.275831445896957731E-31, 1.000000000000000000, 1.224646799147353207E-16 ) ) ;
#40 =( NAMED_UNIT ( * ) SI_UNIT ( $, .STERADIAN. ) SOLID_ANGLE_UNIT ( ) );
#41 = EDGE_CURVE ( 'NONE', #115, #115, #66, .T. ) ;
#42 = ORIENTED_EDGE ( 'NONE', *, *, #90, .T. ) ;
#43 = MANIFOLD_SOLID_BREP ( 'Corps-Déplacer/Copier1[1]', #129 ) ;
#44 = DIRECTION ( 'NONE',  ( 4.275831445896958607E-31, 1.000000000000000000, 1.224646799147353207E-16 ) ) ;
#45 = CARTESIAN_POINT ( 'NONE',  ( 1.319779946082704535E-13, -4.629164900776995227E-15, 37.79999999999999716 ) ) ;
#46 = CARTESIAN_POINT ( 'NONE',  ( 1.326762908760390423E-13, -4.653657836759941941E-15, 38.00000000000000000 ) ) ;
#47 = FACE_BOUND ( 'NONE', #213, .T. ) ;
#48 = APPROVAL_PERSON_ORGANIZATION ( #125, #4, #146 ) ;
#49 = EDGE_CURVE ( 'NONE', #26, #26, #76, .T. ) ;
#50 = COORDINATED_UNIVERSAL_TIME_OFFSET ( 1, 0, .AHEAD. ) ;
#51 = DIRECTION ( 'NONE',  ( 1.000000000000000000, 0.0000000000000000000, 0.0000000000000000000 ) ) ;
#52 = CARTESIAN_POINT ( 'NONE',  ( 1.511855768138743683E-15, 0.7499999999999985567, 0.4330127018922236837 ) ) ;
#53 = DIRECTION ( 'NONE',  ( 0.0000000000000000000, -1.000000000000000000, 0.0000000000000000000 ) ) ;
#54 = ADVANCED_FACE ( 'NONE', ( #47, #83 ), #92, .T. ) ;
#55 = DATE_AND_TIME ( #123, #222 ) ;
#56 = CARTESIAN_POINT ( 'NONE',  ( 3.910459099504309358E-14, -1.371604415045035513E-15, 11.19999999999999929 ) ) ;
#57 = DIRECTION ( 'NONE',  ( -3.491481338843133355E-15, 1.224646799147353207E-16, -1.000000000000000000 ) ) ;
#58 = FACE_OUTER_BOUND ( 'NONE', #70, .T. ) ;
#59 = CIRCLE ( 'NONE', #106, 0.8000000000000009326 ) ;
#60 = DIRECTION ( 'NONE',  ( 3.491481338843133355E-15, -1.224646799147353207E-16, 1.000000000000000000 ) ) ;
#61 = APPROVAL ( #38, 'UNSPECIFIED' ) ;
#62 = DIRECTION ( 'NONE',  ( 0.0000000000000000000, 1.000000000000000000, 0.0000000000000000000 ) ) ;
#63 = EDGE_LOOP ( 'NONE', ( #2 ) ) ;
#64 = FACE_OUTER_BOUND ( 'NONE', #161, .T. ) ;
#65 = PRODUCT_DEFINITION_SHAPE ( 'NONE', 'NONE',  #87 ) ;
#66 = CIRCLE ( 'NONE', #171, 0.7499999999999994449 ) ;
#67 = CARTESIAN_POINT ( 'NONE',  ( 1.326762908760390423E-13, -4.653657836759941941E-15, 38.00000000000000000 ) ) ;
#68 = CC_DESIGN_PERSON_AND_ORGANIZATION_ASSIGNMENT ( #219, #136, ( #215 ) ) ;
#69 = AXIS2_PLACEMENT_3D ( 'NONE', #198, #200, #24 ) ;
#70 = EDGE_LOOP ( 'NONE', ( #21 ) ) ;
#71 = AXIS2_PLACEMENT_3D ( 'NONE', #37, #211, #127 ) ;
#72 = PERSON_AND_ORGANIZATION ( #19, #124 ) ;
#73 = ORIENTED_EDGE ( 'NONE', *, *, #220, .F. ) ;
#74 = CYLINDRICAL_SURFACE ( 'NONE', #71, 0.7499999999999990008 ) ;
#75 = APPROVAL_PERSON_ORGANIZATION ( #216, #128, #202 ) ;
#76 = CIRCLE ( 'NONE', #117, 1.000000000000000888 ) ;
#77 = CARTESIAN_POINT ( 'NONE',  ( 1.511855768138743288E-15, -5.302876193624586959E-17, 0.4330127018922235727 ) ) ;
#78 = ADVANCED_FACE ( 'NONE', ( #64 ), #97, .F. ) ;
#79 = EDGE_LOOP ( 'NONE', ( #102 ) ) ;
#80 = CC_DESIGN_APPROVAL ( #61, ( #110 ) ) ;
#81 = APPROVAL_DATE_TIME ( #147, #4 ) ;
#82 = AXIS2_PLACEMENT_3D ( 'NONE', #46, #112, #166 ) ;
#83 = FACE_OUTER_BOUND ( 'NONE', #79, .T. ) ;
#84 =( NAMED_UNIT ( * ) PLANE_ANGLE_UNIT ( ) SI_UNIT ( $, .RADIAN. ) );
#85 = APPROVAL_PERSON_ORGANIZATION ( #172, #61, #88 ) ;
#86 = CC_DESIGN_PERSON_AND_ORGANIZATION_ASSIGNMENT ( #107, #118, ( #110 ) ) ;
#87 = PRODUCT_DEFINITION ( 'UNKNOWN', '', #110, #12 ) ;
#88 = APPROVAL_ROLE ( '' ) ;
#89 = PRODUCT ( '55780', '55780', '', ( #6 ) ) ;
#90 = EDGE_CURVE ( 'NONE', #10, #10, #163, .T. ) ;
#91 = APPROVAL_DATE_TIME ( #223, #61 ) ;
#92 = CONICAL_SURFACE ( 'NONE', #35, 0.9999999999999978906, 0.5235987755982939307 ) ;
#93 = EDGE_LOOP ( 'NONE', ( #42 ) ) ;
#94 = EDGE_LOOP ( 'NONE', ( #151 ) ) ;
#95 = FACE_OUTER_BOUND ( 'NONE', #214, .T. ) ;
#96 = EDGE_LOOP ( 'NONE', ( #158 ) ) ;
#97 = PLANE ( 'NONE',  #201 ) ;
#98 = CIRCLE ( 'NONE', #204, 0.7499999999999994449 ) ;
#99 = FACE_BOUND ( 'NONE', #63, .T. ) ;
#100 = ADVANCED_FACE ( 'NONE', ( #22, #99 ), #135, .T. ) ;
#101 = DIRECTION ( 'NONE',  ( 3.491481338843133355E-15, -1.224646799147353207E-16, 1.000000000000000000 ) ) ;
#102 = ORIENTED_EDGE ( 'NONE', *, *, #9, .T. ) ;
#103 = CARTESIAN_POINT ( 'NONE',  ( 3.910459099504309358E-14, 0.7499999999999981126, 11.19999999999999929 ) ) ;
#104 = SECURITY_CLASSIFICATION_LEVEL ( 'unclassified' ) ;
#105 = CARTESIAN_POINT ( 'NONE',  ( 1.326762908760390423E-13, 0.7999999999999962697, 38.00000000000000000 ) ) ;
#106 = AXIS2_PLACEMENT_3D ( 'NONE', #67, #138, #27 ) ;
#107 = PERSON_AND_ORGANIZATION ( #19, #124 ) ;
#108 = ORIENTED_EDGE ( 'NONE', *, *, #168, .T. ) ;
#109 = ORIENTED_EDGE ( 'NONE', *, *, #49, .T. ) ;
#110 = PRODUCT_DEFINITION_FORMATION_WITH_SPECIFIED_SOURCE ( 'ANY', '', #89, .NOT_KNOWN. ) ;
#111 = DIRECTION ( 'NONE',  ( -3.491481338843133355E-15, 1.224646799147353207E-16, -1.000000000000000000 ) ) ;
#112 = DIRECTION ( 'NONE',  ( -3.491481338843133355E-15, 1.224646799147353207E-16, -1.000000000000000000 ) ) ;
#113 = MANIFOLD_SOLID_BREP ( 'Corps-Déplacer/Copier1[2]', #11 ) ;
#114 = CC_DESIGN_PERSON_AND_ORGANIZATION_ASSIGNMENT ( #150, #183, ( #87 ) ) ;
#115 = VERTEX_POINT ( 'NONE', #185 ) ;
#116 = APPLICATION_CONTEXT ( 'configuration controlled 3d designs of mechanical parts and assemblies' ) ;
#117 = AXIS2_PLACEMENT_3D ( 'NONE', #45, #177, #208 ) ;
#118 = PERSON_AND_ORGANIZATION_ROLE ( 'design_supplier' ) ;
#119 = CALENDAR_DATE ( 2021, 8, 10 ) ;
#120 = VERTEX_POINT ( 'NONE', #132 ) ;
#121 = LOCAL_TIME ( 10, 11, 52.00000000000000000, #156 ) ;
#122 = CC_DESIGN_DATE_AND_TIME_ASSIGNMENT ( #55, #36, ( #87 ) ) ;
#123 = CALENDAR_DATE ( 2021, 8, 10 ) ;
#124 = ORGANIZATION ( 'UNSPECIFIED', 'UNSPECIFIED', '' ) ;
#125 = PERSON_AND_ORGANIZATION ( #19, #124 ) ;
#126 = ADVANCED_FACE ( 'NONE', ( #25 ), #167, .T. ) ;
#127 = DIRECTION ( 'NONE',  ( 4.275831445896959482E-31, 1.000000000000000000, 1.224646799147353207E-16 ) ) ;
#128 = APPROVAL ( #186, 'UNSPECIFIED' ) ;
#129 = CLOSED_SHELL ( 'NONE', ( #199, #54, #180, #100, #78 ) ) ;
#130 = LOCAL_TIME ( 10, 11, 52.00000000000000000, #194 ) ;
#131 = APPROVAL_DATE_TIME ( #7, #128 ) ;
#132 = CARTESIAN_POINT ( 'NONE',  ( 4.061644676318182681E-14, 0.9999999999999963363, 11.63301270189222159 ) ) ;
#133 = CARTESIAN_POINT ( 'NONE',  ( 1.319779946082704535E-13, 0.9999999999999963363, 37.79999999999999716 ) ) ;
#134 = PERSON_AND_ORGANIZATION_ROLE ( 'design_owner' ) ;
#135 = CONICAL_SURFACE ( 'NONE', #82, 0.8000000000000009326, 0.7853981633974512766 ) ;
#136 = PERSON_AND_ORGANIZATION_ROLE ( 'classification_officer' ) ;
#137 = UNCERTAINTY_MEASURE_WITH_UNIT (LENGTH_MEASURE( 1.000000000000000082E-05 ), #217, 'distance_accuracy_value', 'NONE');
#138 = DIRECTION ( 'NONE',  ( -3.491481338843133355E-15, 1.224646799147353207E-16, -1.000000000000000000 ) ) ;
#139 = CC_DESIGN_SECURITY_CLASSIFICATION ( #215, ( #110 ) ) ;
#140 = CARTESIAN_POINT ( 'NONE',  ( 3.910459099504309358E-14, 5.624099184981941397E-33, 11.19999999999999929 ) ) ;
#141 = CARTESIAN_POINT ( 'NONE',  ( 4.061644676318182681E-14, -1.424633176981281019E-15, 11.63301270189222159 ) ) ;
#142 = CC_DESIGN_PERSON_AND_ORGANIZATION_ASSIGNMENT ( #218, #134, ( #89 ) ) ;
#143 = CIRCLE ( 'NONE', #154, 0.9999999999999978906 ) ;
#144 = EDGE_LOOP ( 'NONE', ( #109 ) ) ;
#145 = DIRECTION ( 'NONE',  ( 3.491481338843133355E-15, -1.224646799147353207E-16, 1.000000000000000000 ) ) ;
#146 = APPROVAL_ROLE ( '' ) ;
#147 = DATE_AND_TIME ( #179, #130 ) ;
#148 = AXIS2_PLACEMENT_3D ( 'NONE', #205, #57, #39 ) ;
#149 = CARTESIAN_POINT ( 'NONE',  ( 1.326762908760390423E-13, 5.999039130647367482E-33, 38.00000000000000000 ) ) ;
#150 = PERSON_AND_ORGANIZATION ( #19, #124 ) ;
#151 = ORIENTED_EDGE ( 'NONE', *, *, #49, .F. ) ;
#152 = APPLICATION_CONTEXT ( 'configuration controlled 3d designs of mechanical parts and assemblies' ) ;
#153 = CARTESIAN_POINT ( 'NONE',  ( 4.061644676318182681E-14, -1.424633176981281019E-15, 11.63301270189222159 ) ) ;
#154 = AXIS2_PLACEMENT_3D ( 'NONE', #141, #196, #62 ) ;
#155 = ADVANCED_FACE ( 'NONE', ( #58 ), #192, .T. ) ;
#156 = COORDINATED_UNIVERSAL_TIME_OFFSET ( 1, 0, .AHEAD. ) ;
#157 = LOCAL_TIME ( 10, 11, 52.00000000000000000, #50 ) ;
#158 = ORIENTED_EDGE ( 'NONE', *, *, #9, .F. ) ;
#159 = FACE_OUTER_BOUND ( 'NONE', #193, .T. ) ;
#160 = FACE_OUTER_BOUND ( 'NONE', #18, .T. ) ;
#161 = EDGE_LOOP ( 'NONE', ( #73 ) ) ;
#162 =( GEOMETRIC_REPRESENTATION_CONTEXT ( 3 ) GLOBAL_UNCERTAINTY_ASSIGNED_CONTEXT ( ( #137 ) ) GLOBAL_UNIT_ASSIGNED_CONTEXT ( ( #217, #84, #40 ) ) REPRESENTATION_CONTEXT ( 'NONE', 'WORKASPACE' ) );
#163 = CIRCLE ( 'NONE', #69, 0.7499999999999985567 ) ;
#164 = APPROVAL_STATUS ( 'not_yet_approved' ) ;
#165 = ADVANCED_FACE ( 'NONE', ( #95, #160 ), #74, .T. ) ;
#166 = DIRECTION ( 'NONE',  ( 0.0000000000000000000, 1.000000000000000000, 0.0000000000000000000 ) ) ;
#167 = CONICAL_SURFACE ( 'NONE', #173, 0.7499999999999985567, 1.047197551196592746 ) ;
#168 = EDGE_CURVE ( 'NONE', #32, #32, #98, .T. ) ;
#169 = CALENDAR_DATE ( 2021, 8, 10 ) ;
#170 = CC_DESIGN_APPROVAL ( #4, ( #87 ) ) ;
#171 = AXIS2_PLACEMENT_3D ( 'NONE', #23, #210, #197 ) ;
#172 = PERSON_AND_ORGANIZATION ( #19, #124 ) ;
#173 = AXIS2_PLACEMENT_3D ( 'NONE', #77, #145, #30 ) ;
#174 = CC_DESIGN_DATE_AND_TIME_ASSIGNMENT ( #184, #31, ( #215 ) ) ;
#175 = DIRECTION ( 'NONE',  ( -4.275831445896958607E-31, -1.000000000000000000, -1.224646799147353207E-16 ) ) ;
#176 = CARTESIAN_POINT ( 'NONE',  ( 3.910459099504309358E-14, 5.624099184981941397E-33, 11.19999999999999929 ) ) ;
#177 = DIRECTION ( 'NONE',  ( -3.491481338843133355E-15, 1.224646799147353207E-16, -1.000000000000000000 ) ) ;
#178 = DIRECTION ( 'NONE',  ( -3.491481338843133355E-15, 1.224646799147353207E-16, -1.000000000000000000 ) ) ;
#179 = CALENDAR_DATE ( 2021, 8, 10 ) ;
#180 = ADVANCED_FACE ( 'NONE', ( #188, #17 ), #207, .T. ) ;
#181 = ORIENTED_EDGE ( 'NONE', *, *, #41, .F. ) ;
#182 = COORDINATED_UNIVERSAL_TIME_OFFSET ( 1, 0, .AHEAD. ) ;
#183 = PERSON_AND_ORGANIZATION_ROLE ( 'creator' ) ;
#184 = DATE_AND_TIME ( #119, #157 ) ;
#185 = CARTESIAN_POINT ( 'NONE',  ( 3.910459099504309358E-14, 0.7499999999999981126, 11.19999999999999929 ) ) ;
#186 = APPROVAL_STATUS ( 'not_yet_approved' ) ;
#187 = AXIS2_PLACEMENT_3D ( 'NONE', #176, #60, #3 ) ;
#188 = FACE_OUTER_BOUND ( 'NONE', #96, .T. ) ;
#189 = DIRECTION ( 'NONE',  ( 3.491481338843133355E-15, -1.224646799147353207E-16, 1.000000000000000000 ) ) ;
#190 = ORIENTED_EDGE ( 'NONE', *, *, #41, .T. ) ;
#191 = AXIS2_PLACEMENT_3D ( 'NONE', #140, #189, #175 ) ;
#192 = PLANE ( 'NONE',  #191 ) ;
#193 = EDGE_LOOP ( 'NONE', ( #190 ) ) ;
#194 = COORDINATED_UNIVERSAL_TIME_OFFSET ( 1, 0, .AHEAD. ) ;
#195 = CARTESIAN_POINT ( 'NONE',  ( 0.0000000000000000000, 0.0000000000000000000, 0.0000000000000000000 ) ) ;
#196 = DIRECTION ( 'NONE',  ( -3.491481338843133355E-15, 1.224646799147353207E-16, -1.000000000000000000 ) ) ;
#197 = DIRECTION ( 'NONE',  ( 0.0000000000000000000, 1.000000000000000000, 0.0000000000000000000 ) ) ;
#198 = CARTESIAN_POINT ( 'NONE',  ( 1.511855768138743288E-15, -5.302876193624586959E-17, 0.4330127018922235727 ) ) ;
#199 = ADVANCED_FACE ( 'NONE', ( #159 ), #1, .F. ) ;
#200 = DIRECTION ( 'NONE',  ( -3.491481338843133355E-15, 1.224646799147353207E-16, -1.000000000000000000 ) ) ;
#201 = AXIS2_PLACEMENT_3D ( 'NONE', #149, #111, #44 ) ;
#202 = APPROVAL_ROLE ( '' ) ;
#203 = LOCAL_TIME ( 10, 11, 52.00000000000000000, #182 ) ;
#204 = AXIS2_PLACEMENT_3D ( 'NONE', #56, #178, #221 ) ;
#205 = CARTESIAN_POINT ( 'NONE',  ( 0.0000000000000000000, 0.0000000000000000000, 0.0000000000000000000 ) ) ;
#206 = ORIENTED_EDGE ( 'NONE', *, *, #90, .F. ) ;
#207 = CYLINDRICAL_SURFACE ( 'NONE', #148, 0.9999999999999993339 ) ;
#208 = DIRECTION ( 'NONE',  ( 0.0000000000000000000, 1.000000000000000000, 0.0000000000000000000 ) ) ;
#209 = DIRECTION ( 'NONE',  ( 0.0000000000000000000, 0.0000000000000000000, 1.000000000000000000 ) ) ;
#210 = DIRECTION ( 'NONE',  ( -3.491481338843133355E-15, 1.224646799147353207E-16, -1.000000000000000000 ) ) ;
#211 = DIRECTION ( 'NONE',  ( -3.491481338843133355E-15, 1.224646799147353207E-16, -1.000000000000000000 ) ) ;
#212 = APPLICATION_PROTOCOL_DEFINITION ( 'international standard', 'config_control_design', 1994, #116 ) ;
#213 = EDGE_LOOP ( 'NONE', ( #181 ) ) ;
#214 = EDGE_LOOP ( 'NONE', ( #206 ) ) ;
#215 = SECURITY_CLASSIFICATION ( '', '', #104 ) ;
#216 = PERSON_AND_ORGANIZATION ( #19, #124 ) ;
#217 =( LENGTH_UNIT ( ) NAMED_UNIT ( * ) SI_UNIT ( .MILLI., .METRE. ) );
#218 = PERSON_AND_ORGANIZATION ( #19, #124 ) ;
#219 = PERSON_AND_ORGANIZATION ( #19, #124 ) ;
#220 = EDGE_CURVE ( 'NONE', #8, #8, #59, .T. ) ;
#221 = DIRECTION ( 'NONE',  ( 0.0000000000000000000, 1.000000000000000000, 0.0000000000000000000 ) ) ;
#222 = LOCAL_TIME ( 10, 11, 52.00000000000000000, #29 ) ;
#223 = DATE_AND_TIME ( #16, #121 ) ;
ENDSEC;
END-ISO-10303-21;
