ISO-10303-21;
HEADER;
FILE_DESCRIPTION (( 'STEP AP203' ),
    '1' );
FILE_NAME ('55779.step',
    '2021-10-08T08:11:51',
    ( '' ),
    ( '' ),
    'SwSTEP 2.0',
    'SolidWorks 2019',
    '' );
FILE_SCHEMA (( 'CONFIG_CONTROL_DESIGN' ));
ENDSEC;

DATA;
#1 = FACE_OUTER_BOUND ( 'NONE', #38, .T. ) ;
#2 = ORIENTED_EDGE ( 'NONE', *, *, #199, .T. ) ;
#3 = EDGE_CURVE ( 'NONE', #20, #20, #83, .T. ) ;
#4 = ORIENTED_EDGE ( 'NONE', *, *, #185, .F. ) ;
#5 = UNCERTAINTY_MEASURE_WITH_UNIT (LENGTH_MEASURE( 1.000000000000000082E-05 ), #73, 'distance_accuracy_value', 'NONE');
#6 = DIRECTION ( 'NONE',  ( 5.312910191413075204E-31, 1.000000000000000000, 1.495451272393802254E-16 ) ) ;
#7 = CIRCLE ( 'NONE', #134, 0.7500000000000000000 ) ;
#8 = CARTESIAN_POINT ( 'NONE',  ( 1.461460575867451155E-15, -5.126113653837098077E-17, 0.4185789451624825630 ) ) ;
#9 = CARTESIAN_POINT ( 'NONE',  ( 0.0000000000000000000, 0.0000000000000000000, 0.0000000000000000000 ) ) ;
#10 = APPROVAL_DATE_TIME ( #166, #129 ) ;
#11 = CARTESIAN_POINT ( 'NONE',  ( 1.047444401652940007E-13, -3.673940397442059178E-15, 30.00000000000000000 ) ) ;
#12 = AXIS2_PLACEMENT_3D ( 'NONE', #142, #56, #122 ) ;
#13 = DATE_AND_TIME ( #113, #58 ) ;
#14 = ADVANCED_FACE ( 'NONE', ( #23 ), #21, .F. ) ;
#15 = AXIS2_PLACEMENT_3D ( 'NONE', #217, #55, #119 ) ;
#16 = EDGE_LOOP ( 'NONE', ( #39 ) ) ;
#17 = APPROVAL_PERSON_ORGANIZATION ( #95, #129, #94 ) ;
#18 = CARTESIAN_POINT ( 'NONE',  ( 3.925577657185695617E-14, -1.376907291238659748E-15, 11.24330127018921921 ) ) ;
#19 = PERSON_AND_ORGANIZATION ( #115, #108 ) ;
#20 = VERTEX_POINT ( 'NONE', #42 ) ;
#21 = PLANE ( 'NONE',  #112 ) ;
#22 = FACE_OUTER_BOUND ( 'NONE', #90, .T. ) ;
#23 = FACE_OUTER_BOUND ( 'NONE', #161, .T. ) ;
#24 = APPROVAL ( #40, 'UNSPECIFIED' ) ;
#25 = PERSON_AND_ORGANIZATION_ROLE ( 'design_owner' ) ;
#26 = DIRECTION ( 'NONE',  ( 4.275831445896959482E-31, 1.000000000000000000, 1.224646799147353207E-16 ) ) ;
#27 = COORDINATED_UNIVERSAL_TIME_OFFSET ( 1, 0, .AHEAD. ) ;
#28 = DATE_AND_TIME ( #153, #85 ) ;
#29 = CLOSED_SHELL ( 'NONE', ( #221, #88, #146 ) ) ;
#30 = MANIFOLD_SOLID_BREP ( 'Corps-Déplacer/Copier1[1]', #187 ) ;
#31 = CC_DESIGN_PERSON_AND_ORGANIZATION_ASSIGNMENT ( #64, #78, ( #145 ) ) ;
#32 = FACE_OUTER_BOUND ( 'NONE', #197, .T. ) ;
#33 = CONICAL_SURFACE ( 'NONE', #158, 0.5500000000000000444, 0.7853981633974512766 ) ;
#34 = CC_DESIGN_DATE_AND_TIME_ASSIGNMENT ( #148, #126, ( #37 ) ) ;
#35 = CC_DESIGN_SECURITY_CLASSIFICATION ( #145, ( #44 ) ) ;
#36 = CARTESIAN_POINT ( 'NONE',  ( 3.925577657185695617E-14, 0.7499999999999963363, 11.24330127018921921 ) ) ;
#37 = PRODUCT_DEFINITION ( 'UNKNOWN', '', #44, #71 ) ;
#38 = EDGE_LOOP ( 'NONE', ( #69 ) ) ;
#39 = ORIENTED_EDGE ( 'NONE', *, *, #103, .F. ) ;
#40 = APPROVAL_STATUS ( 'not_yet_approved' ) ;
#41 = DIRECTION ( 'NONE',  ( 0.0000000000000000000, 0.0000000000000000000, 1.000000000000000000 ) ) ;
#42 = CARTESIAN_POINT ( 'NONE',  ( 3.910459099504309358E-14, 0.7249999999999990896, 11.19999999999999929 ) ) ;
#43 = DIRECTION ( 'NONE',  ( -3.491481338843133355E-15, 1.224646799147353207E-16, -1.000000000000000000 ) ) ;
#44 = PRODUCT_DEFINITION_FORMATION_WITH_SPECIFIED_SOURCE ( 'ANY', '', #141, .NOT_KNOWN. ) ;
#45 = DATE_AND_TIME ( #124, #201 ) ;
#46 = AXIS2_PLACEMENT_3D ( 'NONE', #143, #182, #93 ) ;
#47 =( GEOMETRIC_REPRESENTATION_CONTEXT ( 3 ) GLOBAL_UNCERTAINTY_ASSIGNED_CONTEXT ( ( #5 ) ) GLOBAL_UNIT_ASSIGNED_CONTEXT ( ( #73, #48, #206 ) ) REPRESENTATION_CONTEXT ( 'NONE', 'WORKASPACE' ) );
#48 =( NAMED_UNIT ( * ) PLANE_ANGLE_UNIT ( ) SI_UNIT ( $, .RADIAN. ) );
#49 = CIRCLE ( 'NONE', #205, 0.7249999999999985345 ) ;
#50 = AXIS2_PLACEMENT_3D ( 'NONE', #79, #100, #26 ) ;
#51 = ADVANCED_FACE ( 'NONE', ( #92 ), #144, .F. ) ;
#52 = EDGE_LOOP ( 'NONE', ( #177 ) ) ;
#53 = DIRECTION ( 'NONE',  ( -5.312910191413075204E-31, -1.000000000000000000, -1.495451272393802254E-16 ) ) ;
#54 = CIRCLE ( 'NONE', #46, 0.7250000000000005329 ) ;
#55 = DIRECTION ( 'NONE',  ( 3.491481338843133355E-15, -1.224646799147353207E-16, 1.000000000000000000 ) ) ;
#56 = DIRECTION ( 'NONE',  ( -3.491481338843133355E-15, 1.224646799147353207E-16, -1.000000000000000000 ) ) ;
#57 = DIRECTION ( 'NONE',  ( 4.275831445896958607E-31, 1.000000000000000000, 1.224646799147353207E-16 ) ) ;
#58 = LOCAL_TIME ( 10, 11, 51.00000000000000000, #186 ) ;
#59 = MANIFOLD_SOLID_BREP ( 'Corps-Déplacer/Copier1[2]', #29 ) ;
#60 = CARTESIAN_POINT ( 'NONE',  ( 1.040461438975253740E-13, -3.649447461459112464E-15, 29.80000000000000071 ) ) ;
#61 = DIRECTION ( 'NONE',  ( 0.0000000000000000000, 1.000000000000000000, 0.0000000000000000000 ) ) ;
#62 = DATE_TIME_ROLE ( 'classification_date' ) ;
#63 = CC_DESIGN_DATE_AND_TIME_ASSIGNMENT ( #28, #62, ( #145 ) ) ;
#64 = PERSON_AND_ORGANIZATION ( #115, #108 ) ;
#65 = LOCAL_TIME ( 10, 11, 51.00000000000000000, #163 ) ;
#66 = VERTEX_POINT ( 'NONE', #133 ) ;
#67 = ORIENTED_EDGE ( 'NONE', *, *, #199, .F. ) ;
#68 = DIRECTION ( 'NONE',  ( 0.0000000000000000000, 1.000000000000000000, 0.0000000000000000000 ) ) ;
#69 = ORIENTED_EDGE ( 'NONE', *, *, #103, .T. ) ;
#70 = CC_DESIGN_APPROVAL ( #129, ( #145 ) ) ;
#71 = DESIGN_CONTEXT ( 'detailed design', #184, 'design' ) ;
#72 = CARTESIAN_POINT ( 'NONE',  ( 1.047444401652940007E-13, 4.124339402320052999E-33, 30.00000000000000000 ) ) ;
#73 =( LENGTH_UNIT ( ) NAMED_UNIT ( * ) SI_UNIT ( .MILLI., .METRE. ) );
#74 = FACE_OUTER_BOUND ( 'NONE', #16, .T. ) ;
#75 = DIRECTION ( 'NONE',  ( -3.491481338843133355E-15, 1.224646799147353207E-16, -1.000000000000000000 ) ) ;
#76 = SHAPE_DEFINITION_REPRESENTATION ( #210, #104 ) ;
#77 = PLANE ( 'NONE',  #114 ) ;
#78 = PERSON_AND_ORGANIZATION_ROLE ( 'classification_officer' ) ;
#79 = CARTESIAN_POINT ( 'NONE',  ( 0.0000000000000000000, 0.0000000000000000000, 0.0000000000000000000 ) ) ;
#80 = CIRCLE ( 'NONE', #12, 0.5500000000000000444 ) ;
#81 = VERTEX_POINT ( 'NONE', #155 ) ;
#82 = CC_DESIGN_PERSON_AND_ORGANIZATION_ASSIGNMENT ( #152, #25, ( #141 ) ) ;
#83 = CIRCLE ( 'NONE', #218, 0.7250000000000005329 ) ;
#84 = DIRECTION ( 'NONE',  ( 0.0000000000000000000, 1.000000000000000000, 0.0000000000000000000 ) ) ;
#85 = LOCAL_TIME ( 10, 11, 51.00000000000000000, #127 ) ;
#86 = CARTESIAN_POINT ( 'NONE',  ( 3.925577657185695617E-14, -1.376907291238659748E-15, 11.24330127018921921 ) ) ;
#87 = ORIENTED_EDGE ( 'NONE', *, *, #3, .T. ) ;
#88 = ADVANCED_FACE ( 'NONE', ( #74, #22 ), #89, .T. ) ;
#89 = CYLINDRICAL_SURFACE ( 'NONE', #173, 0.7249999999999995337 ) ;
#90 = EDGE_LOOP ( 'NONE', ( #87 ) ) ;
#91 = EDGE_LOOP ( 'NONE', ( #2 ) ) ;
#92 = FACE_OUTER_BOUND ( 'NONE', #179, .T. ) ;
#93 = DIRECTION ( 'NONE',  ( 0.0000000000000000000, 1.000000000000000000, 0.0000000000000000000 ) ) ;
#94 = APPROVAL_ROLE ( '' ) ;
#95 = PERSON_AND_ORGANIZATION ( #115, #108 ) ;
#96 = FACE_BOUND ( 'NONE', #52, .T. ) ;
#97 = DIRECTION ( 'NONE',  ( 3.491481338843133355E-15, -1.224646799147353207E-16, 1.000000000000000000 ) ) ;
#98 = CC_DESIGN_PERSON_AND_ORGANIZATION_ASSIGNMENT ( #190, #99, ( #44 ) ) ;
#99 = PERSON_AND_ORGANIZATION_ROLE ( 'design_supplier' ) ;
#100 = DIRECTION ( 'NONE',  ( -3.491481338843133355E-15, 1.224646799147353207E-16, -1.000000000000000000 ) ) ;
#101 = DIRECTION ( 'NONE',  ( -3.491481338843133355E-15, 1.224646799147353207E-16, -1.000000000000000000 ) ) ;
#102 = ORIENTED_EDGE ( 'NONE', *, *, #172, .T. ) ;
#103 = EDGE_CURVE ( 'NONE', #211, #211, #49, .T. ) ;
#104 = ADVANCED_BREP_SHAPE_REPRESENTATION ( '55779', ( #30, #59, #162 ), #47 ) ;
#105 = EDGE_LOOP ( 'NONE', ( #118 ) ) ;
#106 = CC_DESIGN_PERSON_AND_ORGANIZATION_ASSIGNMENT ( #165, #151, ( #37 ) ) ;
#107 = DIRECTION ( 'NONE',  ( 4.275831445896958607E-31, 1.000000000000000000, 1.224646799147353207E-16 ) ) ;
#108 = ORGANIZATION ( 'UNSPECIFIED', 'UNSPECIFIED', '' ) ;
#109 = COORDINATED_UNIVERSAL_TIME_OFFSET ( 1, 0, .AHEAD. ) ;
#110 = DIRECTION ( 'NONE',  ( 0.0000000000000000000, 1.000000000000000000, 0.0000000000000000000 ) ) ;
#111 = APPROVAL_STATUS ( 'not_yet_approved' ) ;
#112 = AXIS2_PLACEMENT_3D ( 'NONE', #72, #75, #57 ) ;
#113 = CALENDAR_DATE ( 2021, 8, 10 ) ;
#114 = AXIS2_PLACEMENT_3D ( 'NONE', #204, #97, #150 ) ;
#115 = PERSON ( 'UNSPECIFIED', 'UNSPECIFIED', 'UNSPECIFIED', ('UNSPECIFIED'), ('UNSPECIFIED'), ('UNSPECIFIED') ) ;
#116 = EDGE_CURVE ( 'NONE', #81, #81, #80, .T. ) ;
#117 = EDGE_LOOP ( 'NONE', ( #214 ) ) ;
#118 = ORIENTED_EDGE ( 'NONE', *, *, #185, .T. ) ;
#119 = DIRECTION ( 'NONE',  ( -4.275831445896958607E-31, -1.000000000000000000, -1.224646799147353207E-16 ) ) ;
#120 = APPROVAL_ROLE ( '' ) ;
#121 = FACE_OUTER_BOUND ( 'NONE', #105, .T. ) ;
#122 = DIRECTION ( 'NONE',  ( 0.0000000000000000000, 1.000000000000000000, 0.0000000000000000000 ) ) ;
#123 = LOCAL_TIME ( 10, 11, 51.00000000000000000, #109 ) ;
#124 = CALENDAR_DATE ( 2021, 8, 10 ) ;
#125 = FACE_OUTER_BOUND ( 'NONE', #117, .T. ) ;
#126 = DATE_TIME_ROLE ( 'creation_date' ) ;
#127 = COORDINATED_UNIVERSAL_TIME_OFFSET ( 1, 0, .AHEAD. ) ;
#128 = AXIS2_PLACEMENT_3D ( 'NONE', #174, #196, #53 ) ;
#129 = APPROVAL ( #207, 'UNSPECIFIED' ) ;
#130 = ADVANCED_FACE ( 'NONE', ( #181, #121 ), #198, .T. ) ;
#131 = CONICAL_SURFACE ( 'NONE', #219, 0.7499999999999977796, 0.5235987755982802749 ) ;
#132 = APPROVAL_DATE_TIME ( #13, #135 ) ;
#133 = CARTESIAN_POINT ( 'NONE',  ( 1.040461438975253740E-13, 0.7499999999999963363, 29.80000000000000071 ) ) ;
#134 = AXIS2_PLACEMENT_3D ( 'NONE', #60, #209, #68 ) ;
#135 = APPROVAL ( #111, 'UNSPECIFIED' ) ;
#136 = CARTESIAN_POINT ( 'NONE',  ( 3.910459099504309358E-14, 0.7249999999999990896, 11.19999999999999929 ) ) ;
#137 = DIRECTION ( 'NONE',  ( 0.0000000000000000000, -1.000000000000000000, 0.0000000000000000000 ) ) ;
#138 = ORIENTED_EDGE ( 'NONE', *, *, #116, .F. ) ;
#139 = CC_DESIGN_APPROVAL ( #24, ( #37 ) ) ;
#140 = CIRCLE ( 'NONE', #215, 0.7499999999999977796 ) ;
#141 = PRODUCT ( '55779', '55779', '', ( #167 ) ) ;
#142 = CARTESIAN_POINT ( 'NONE',  ( 1.047444401652940007E-13, -3.673940397442059178E-15, 30.00000000000000000 ) ) ;
#143 = CARTESIAN_POINT ( 'NONE',  ( 3.910459099504309358E-14, -1.371604415045035513E-15, 11.19999999999999929 ) ) ;
#144 = PLANE ( 'NONE',  #15 ) ;
#145 = SECURITY_CLASSIFICATION ( '', '', #169 ) ;
#146 = ADVANCED_FACE ( 'NONE', ( #125 ), #77, .T. ) ;
#147 = PERSON_AND_ORGANIZATION ( #115, #108 ) ;
#148 = DATE_AND_TIME ( #183, #123 ) ;
#149 = APPROVAL_ROLE ( '' ) ;
#150 = DIRECTION ( 'NONE',  ( -4.275831445896958607E-31, -1.000000000000000000, -1.224646799147353207E-16 ) ) ;
#151 = PERSON_AND_ORGANIZATION_ROLE ( 'creator' ) ;
#152 = PERSON_AND_ORGANIZATION ( #115, #108 ) ;
#153 = CALENDAR_DATE ( 2021, 8, 10 ) ;
#154 = PERSON_AND_ORGANIZATION ( #115, #108 ) ;
#155 = CARTESIAN_POINT ( 'NONE',  ( 1.047444401652940007E-13, 0.5499999999999963807, 30.00000000000000000 ) ) ;
#156 = ADVANCED_FACE ( 'NONE', ( #32, #96 ), #33, .T. ) ;
#157 = DIRECTION ( 'NONE',  ( 3.491481338843133355E-15, -1.224646799147353207E-16, 1.000000000000000000 ) ) ;
#158 = AXIS2_PLACEMENT_3D ( 'NONE', #11, #223, #61 ) ;
#159 = APPLICATION_CONTEXT ( 'configuration controlled 3d designs of mechanical parts and assemblies' ) ;
#160 = CARTESIAN_POINT ( 'NONE',  ( 0.0000000000000000000, 0.0000000000000000000, 0.0000000000000000000 ) ) ;
#161 = EDGE_LOOP ( 'NONE', ( #138 ) ) ;
#162 = AXIS2_PLACEMENT_3D ( 'NONE', #9, #41, #216 ) ;
#163 = COORDINATED_UNIVERSAL_TIME_OFFSET ( 1, 0, .AHEAD. ) ;
#164 = CC_DESIGN_PERSON_AND_ORGANIZATION_ASSIGNMENT ( #154, #168, ( #44 ) ) ;
#165 = PERSON_AND_ORGANIZATION ( #115, #108 ) ;
#166 = DATE_AND_TIME ( #188, #65 ) ;
#167 = MECHANICAL_CONTEXT ( 'NONE', #159, 'mechanical' ) ;
#168 = PERSON_AND_ORGANIZATION_ROLE ( 'creator' ) ;
#169 = SECURITY_CLASSIFICATION_LEVEL ( 'unclassified' ) ;
#170 = APPLICATION_PROTOCOL_DEFINITION ( 'international standard', 'config_control_design', 1994, #159 ) ;
#171 = APPROVAL_PERSON_ORGANIZATION ( #147, #135, #149 ) ;
#172 = EDGE_CURVE ( 'NONE', #191, #191, #54, .T. ) ;
#173 = AXIS2_PLACEMENT_3D ( 'NONE', #160, #43, #107 ) ;
#174 = CARTESIAN_POINT ( 'NONE',  ( 1.461460575867451155E-15, -5.126113653837098077E-17, 0.4185789451624825630 ) ) ;
#175 = ORIENTED_EDGE ( 'NONE', *, *, #172, .F. ) ;
#176 = FACE_OUTER_BOUND ( 'NONE', #91, .T. ) ;
#177 = ORIENTED_EDGE ( 'NONE', *, *, #116, .T. ) ;
#178 = CC_DESIGN_APPROVAL ( #135, ( #44 ) ) ;
#179 = EDGE_LOOP ( 'NONE', ( #102 ) ) ;
#180 = APPROVAL_PERSON_ORGANIZATION ( #19, #24, #120 ) ;
#181 = FACE_OUTER_BOUND ( 'NONE', #193, .T. ) ;
#182 = DIRECTION ( 'NONE',  ( -3.491481338843133355E-15, 1.224646799147353207E-16, -1.000000000000000000 ) ) ;
#183 = CALENDAR_DATE ( 2021, 8, 10 ) ;
#184 = APPLICATION_CONTEXT ( 'configuration controlled 3d designs of mechanical parts and assemblies' ) ;
#185 = EDGE_CURVE ( 'NONE', #66, #66, #7, .T. ) ;
#186 = COORDINATED_UNIVERSAL_TIME_OFFSET ( 1, 0, .AHEAD. ) ;
#187 = CLOSED_SHELL ( 'NONE', ( #51, #208, #130, #156, #14 ) ) ;
#188 = CALENDAR_DATE ( 2021, 8, 10 ) ;
#189 = CONICAL_SURFACE ( 'NONE', #128, 0.7249999999999985345, 1.047197551196592746 ) ;
#190 = PERSON_AND_ORGANIZATION ( #115, #108 ) ;
#191 = VERTEX_POINT ( 'NONE', #136 ) ;
#192 = FACE_BOUND ( 'NONE', #195, .T. ) ;
#193 = EDGE_LOOP ( 'NONE', ( #67 ) ) ;
#194 = CARTESIAN_POINT ( 'NONE',  ( 1.461460575867451550E-15, 0.7249999999999985345, 0.4185789451624826740 ) ) ;
#195 = EDGE_LOOP ( 'NONE', ( #175 ) ) ;
#196 = DIRECTION ( 'NONE',  ( 3.491481338843133355E-15, -1.224646799147353207E-16, 1.000000000000000000 ) ) ;
#197 = EDGE_LOOP ( 'NONE', ( #4 ) ) ;
#198 = CYLINDRICAL_SURFACE ( 'NONE', #50, 0.7499999999999988898 ) ;
#199 = EDGE_CURVE ( 'NONE', #212, #212, #140, .T. ) ;
#200 = DIRECTION ( 'NONE',  ( -3.491481338843133355E-15, 1.224646799147353207E-16, -1.000000000000000000 ) ) ;
#201 = LOCAL_TIME ( 10, 11, 51.00000000000000000, #27 ) ;
#202 = DIRECTION ( 'NONE',  ( -3.491481338843133355E-15, 1.224646799147353207E-16, -1.000000000000000000 ) ) ;
#203 = APPROVAL_DATE_TIME ( #45, #24 ) ;
#204 = CARTESIAN_POINT ( 'NONE',  ( 3.910459099504309358E-14, 5.436629212149216723E-33, 11.19999999999999929 ) ) ;
#205 = AXIS2_PLACEMENT_3D ( 'NONE', #8, #202, #6 ) ;
#206 =( NAMED_UNIT ( * ) SI_UNIT ( $, .STERADIAN. ) SOLID_ANGLE_UNIT ( ) );
#207 = APPROVAL_STATUS ( 'not_yet_approved' ) ;
#208 = ADVANCED_FACE ( 'NONE', ( #192, #176 ), #131, .T. ) ;
#209 = DIRECTION ( 'NONE',  ( -3.491481338843133355E-15, 1.224646799147353207E-16, -1.000000000000000000 ) ) ;
#210 = PRODUCT_DEFINITION_SHAPE ( 'NONE', 'NONE',  #37 ) ;
#211 = VERTEX_POINT ( 'NONE', #194 ) ;
#212 = VERTEX_POINT ( 'NONE', #36 ) ;
#213 = PRODUCT_RELATED_PRODUCT_CATEGORY ( 'detail', '', ( #141 ) ) ;
#214 = ORIENTED_EDGE ( 'NONE', *, *, #3, .F. ) ;
#215 = AXIS2_PLACEMENT_3D ( 'NONE', #86, #101, #84 ) ;
#216 = DIRECTION ( 'NONE',  ( 1.000000000000000000, 0.0000000000000000000, 0.0000000000000000000 ) ) ;
#217 = CARTESIAN_POINT ( 'NONE',  ( 3.910459099504309358E-14, 5.436629212149216723E-33, 11.19999999999999929 ) ) ;
#218 = AXIS2_PLACEMENT_3D ( 'NONE', #220, #200, #110 ) ;
#219 = AXIS2_PLACEMENT_3D ( 'NONE', #18, #157, #137 ) ;
#220 = CARTESIAN_POINT ( 'NONE',  ( 3.910459099504309358E-14, -1.371604415045035513E-15, 11.19999999999999929 ) ) ;
#221 = ADVANCED_FACE ( 'NONE', ( #1 ), #189, .T. ) ;
#222 = APPLICATION_PROTOCOL_DEFINITION ( 'international standard', 'config_control_design', 1994, #184 ) ;
#223 = DIRECTION ( 'NONE',  ( -3.491481338843133355E-15, 1.224646799147353207E-16, -1.000000000000000000 ) ) ;
ENDSEC;
END-ISO-10303-21;
