ISO-10303-21;
HEADER;
FILE_DESCRIPTION (( 'STEP AP203' ),
    '1' );
FILE_NAME ('55777.step',
    '2021-10-08T08:11:49',
    ( '' ),
    ( '' ),
    'SwSTEP 2.0',
    'SolidWorks 2019',
    '' );
FILE_SCHEMA (( 'CONFIG_CONTROL_DESIGN' ));
ENDSEC;

DATA;
#1 = COORDINATED_UNIVERSAL_TIME_OFFSET ( 1, 0, .AHEAD. ) ;
#2 = CLOSED_SHELL ( 'NONE', ( #153, #17, #25 ) ) ;
#3 = ORIENTED_EDGE ( 'NONE', *, *, #219, .F. ) ;
#4 = APPROVAL_DATE_TIME ( #161, #83 ) ;
#5 = CARTESIAN_POINT ( 'NONE',  ( 3.910459099504309358E-14, -1.371604415045035513E-15, 11.19999999999999929 ) ) ;
#6 = APPROVAL_PERSON_ORGANIZATION ( #67, #83, #19 ) ;
#7 = FACE_OUTER_BOUND ( 'NONE', #39, .T. ) ;
#8 = PLANE ( 'NONE',  #15 ) ;
#9 = DIRECTION ( 'NONE',  ( 4.275831445896959482E-31, 1.000000000000000000, 1.224646799147353207E-16 ) ) ;
#10 = FACE_OUTER_BOUND ( 'NONE', #72, .T. ) ;
#11 = ADVANCED_FACE ( 'NONE', ( #182 ), #26, .F. ) ;
#12 = CC_DESIGN_PERSON_AND_ORGANIZATION_ASSIGNMENT ( #196, #77, ( #221 ) ) ;
#13 = APPROVAL_PERSON_ORGANIZATION ( #173, #74, #186 ) ;
#14 = COORDINATED_UNIVERSAL_TIME_OFFSET ( 1, 0, .AHEAD. ) ;
#15 = AXIS2_PLACEMENT_3D ( 'NONE', #79, #195, #73 ) ;
#16 = DATE_AND_TIME ( #223, #137 ) ;
#17 = ADVANCED_FACE ( 'NONE', ( #124, #7 ), #159, .T. ) ;
#18 = PERSON_AND_ORGANIZATION_ROLE ( 'creator' ) ;
#19 = APPROVAL_ROLE ( '' ) ;
#20 = ORIENTED_EDGE ( 'NONE', *, *, #69, .F. ) ;
#21 = CARTESIAN_POINT ( 'NONE',  ( 3.910459099504309358E-14, -1.371604415045035513E-15, 11.19999999999999929 ) ) ;
#22 = ADVANCED_BREP_SHAPE_REPRESENTATION ( '55777', ( #97, #102, #141 ), #107 ) ;
#23 = DIRECTION ( 'NONE',  ( 0.0000000000000000000, 1.000000000000000000, 0.0000000000000000000 ) ) ;
#24 = EDGE_LOOP ( 'NONE', ( #51 ) ) ;
#25 = ADVANCED_FACE ( 'NONE', ( #108 ), #126, .T. ) ;
#26 = PLANE ( 'NONE',  #178 ) ;
#27 = FACE_BOUND ( 'NONE', #110, .T. ) ;
#28 = APPLICATION_PROTOCOL_DEFINITION ( 'international standard', 'config_control_design', 1994, #54 ) ;
#29 = LOCAL_TIME ( 10, 11, 49.00000000000000000, #1 ) ;
#30 = CLOSED_SHELL ( 'NONE', ( #44, #163, #168, #86, #11 ) ) ;
#31 = CC_DESIGN_PERSON_AND_ORGANIZATION_ASSIGNMENT ( #57, #165, ( #106 ) ) ;
#32 = CC_DESIGN_APPROVAL ( #83, ( #106 ) ) ;
#33 = PRODUCT ( '55777', '55777', '', ( #117 ) ) ;
#34 = ORIENTED_EDGE ( 'NONE', *, *, #50, .T. ) ;
#35 = DIRECTION ( 'NONE',  ( -3.491481338843133355E-15, 1.224646799147353207E-16, -1.000000000000000000 ) ) ;
#36 = DIRECTION ( 'NONE',  ( 0.0000000000000000000, 1.000000000000000000, 0.0000000000000000000 ) ) ;
#37 = EDGE_LOOP ( 'NONE', ( #181 ) ) ;
#38 = LOCAL_TIME ( 10, 11, 49.00000000000000000, #183 ) ;
#39 = EDGE_LOOP ( 'NONE', ( #34 ) ) ;
#40 = PRODUCT_DEFINITION_SHAPE ( 'NONE', 'NONE',  #93 ) ;
#41 = PERSON_AND_ORGANIZATION ( #78, #185 ) ;
#42 = VERTEX_POINT ( 'NONE', #98 ) ;
#43 = CC_DESIGN_APPROVAL ( #74, ( #93 ) ) ;
#44 = ADVANCED_FACE ( 'NONE', ( #142 ), #8, .F. ) ;
#45 = DIRECTION ( 'NONE',  ( 1.000000000000000000, 0.0000000000000000000, 0.0000000000000000000 ) ) ;
#46 = DATE_AND_TIME ( #87, #64 ) ;
#47 = CC_DESIGN_DATE_AND_TIME_ASSIGNMENT ( #46, #176, ( #93 ) ) ;
#48 = CONICAL_SURFACE ( 'NONE', #205, 0.7499999999999977796, 0.5235987755982930425 ) ;
#49 = ORIENTED_EDGE ( 'NONE', *, *, #50, .F. ) ;
#50 = EDGE_CURVE ( 'NONE', #100, #100, #166, .T. ) ;
#51 = ORIENTED_EDGE ( 'NONE', *, *, #155, .F. ) ;
#52 = DIRECTION ( 'NONE',  ( -3.491481338843133355E-15, 1.224646799147353207E-16, -1.000000000000000000 ) ) ;
#53 = ORIENTED_EDGE ( 'NONE', *, *, #123, .F. ) ;
#54 = APPLICATION_CONTEXT ( 'configuration controlled 3d designs of mechanical parts and assemblies' ) ;
#55 = DIRECTION ( 'NONE',  ( 0.0000000000000000000, 1.000000000000000000, 0.0000000000000000000 ) ) ;
#56 = PERSON_AND_ORGANIZATION_ROLE ( 'creator' ) ;
#57 = PERSON_AND_ORGANIZATION ( #78, #185 ) ;
#58 = CARTESIAN_POINT ( 'NONE',  ( 3.940696214867083139E-14, 0.7499999999999963363, 11.28660254037844091 ) ) ;
#59 = VERTEX_POINT ( 'NONE', #58 ) ;
#60 = PERSON_AND_ORGANIZATION ( #78, #185 ) ;
#61 = DIRECTION ( 'NONE',  ( -3.491481338843133355E-15, 1.224646799147353207E-16, -1.000000000000000000 ) ) ;
#62 = CIRCLE ( 'NONE', #214, 0.5500000000000000444 ) ;
#63 = CARTESIAN_POINT ( 'NONE',  ( 1.411065383596160008E-15, -4.949351114049612893E-17, 0.4041451884327418864 ) ) ;
#64 = LOCAL_TIME ( 10, 11, 49.00000000000000000, #136 ) ;
#65 = VERTEX_POINT ( 'NONE', #85 ) ;
#66 = VERTEX_POINT ( 'NONE', #150 ) ;
#67 = PERSON_AND_ORGANIZATION ( #78, #185 ) ;
#68 = UNCERTAINTY_MEASURE_WITH_UNIT (LENGTH_MEASURE( 1.000000000000000082E-05 ), #82, 'distance_accuracy_value', 'NONE');
#69 = EDGE_CURVE ( 'NONE', #59, #59, #210, .T. ) ;
#70 = PERSON_AND_ORGANIZATION ( #78, #185 ) ;
#71 = CC_DESIGN_APPROVAL ( #135, ( #221 ) ) ;
#72 = EDGE_LOOP ( 'NONE', ( #20 ) ) ;
#73 = DIRECTION ( 'NONE',  ( -4.275831445896958607E-31, -1.000000000000000000, -1.224646799147353207E-16 ) ) ;
#74 = APPROVAL ( #204, 'UNSPECIFIED' ) ;
#75 = CARTESIAN_POINT ( 'NONE',  ( 1.047444401652940007E-13, -3.673940397442059178E-15, 30.00000000000000000 ) ) ;
#76 = CARTESIAN_POINT ( 'NONE',  ( 3.910459099504309358E-14, 5.249159239316479048E-33, 11.19999999999999929 ) ) ;
#77 = PERSON_AND_ORGANIZATION_ROLE ( 'classification_officer' ) ;
#78 = PERSON ( 'UNSPECIFIED', 'UNSPECIFIED', 'UNSPECIFIED', ('UNSPECIFIED'), ('UNSPECIFIED'), ('UNSPECIFIED') ) ;
#79 = CARTESIAN_POINT ( 'NONE',  ( 3.910459099504309358E-14, 5.249159239316479048E-33, 11.19999999999999929 ) ) ;
#80 = CARTESIAN_POINT ( 'NONE',  ( 1.040461438975253740E-13, -3.649447461459112464E-15, 29.80000000000000071 ) ) ;
#81 = CARTESIAN_POINT ( 'NONE',  ( 0.0000000000000000000, 0.0000000000000000000, 0.0000000000000000000 ) ) ;
#82 =( LENGTH_UNIT ( ) NAMED_UNIT ( * ) SI_UNIT ( .MILLI., .METRE. ) );
#83 = APPROVAL ( #156, 'UNSPECIFIED' ) ;
#84 = AXIS2_PLACEMENT_3D ( 'NONE', #129, #35, #90 ) ;
#85 = CARTESIAN_POINT ( 'NONE',  ( 1.047444401652940007E-13, 0.5499999999999963807, 30.00000000000000000 ) ) ;
#86 = ADVANCED_FACE ( 'NONE', ( #200, #160 ), #88, .T. ) ;
#87 = CALENDAR_DATE ( 2021, 8, 10 ) ;
#88 = CONICAL_SURFACE ( 'NONE', #213, 0.5500000000000000444, 0.7853981633974512766 ) ;
#89 = ORIENTED_EDGE ( 'NONE', *, *, #69, .T. ) ;
#90 = DIRECTION ( 'NONE',  ( 0.0000000000000000000, 1.000000000000000000, 0.0000000000000000000 ) ) ;
#91 = DIRECTION ( 'NONE',  ( 0.0000000000000000000, 1.000000000000000000, 0.0000000000000000000 ) ) ;
#92 = ORIENTED_EDGE ( 'NONE', *, *, #112, .T. ) ;
#93 = PRODUCT_DEFINITION ( 'UNKNOWN', '', #106, #209 ) ;
#94 = LOCAL_TIME ( 10, 11, 49.00000000000000000, #208 ) ;
#95 = ORIENTED_EDGE ( 'NONE', *, *, #219, .T. ) ;
#96 = CALENDAR_DATE ( 2021, 8, 10 ) ;
#97 = MANIFOLD_SOLID_BREP ( 'Corps-Déplacer/Copier1[1]', #30 ) ;
#98 = CARTESIAN_POINT ( 'NONE',  ( 3.910459099504309358E-14, 0.6999999999999984013, 11.19999999999999929 ) ) ;
#99 = DIRECTION ( 'NONE',  ( 0.0000000000000000000, -1.000000000000000000, 0.0000000000000000000 ) ) ;
#100 = VERTEX_POINT ( 'NONE', #172 ) ;
#101 = CARTESIAN_POINT ( 'NONE',  ( 1.411065383596160403E-15, 0.6999999999999986233, 0.4041451884327419974 ) ) ;
#102 = MANIFOLD_SOLID_BREP ( 'Corps-Déplacer/Copier1[2]', #2 ) ;
#103 = PERSON_AND_ORGANIZATION_ROLE ( 'design_owner' ) ;
#104 = CIRCLE ( 'NONE', #115, 0.6999999999999986233 ) ;
#105 = DATE_AND_TIME ( #191, #94 ) ;
#106 = PRODUCT_DEFINITION_FORMATION_WITH_SPECIFIED_SOURCE ( 'ANY', '', #33, .NOT_KNOWN. ) ;
#107 =( GEOMETRIC_REPRESENTATION_CONTEXT ( 3 ) GLOBAL_UNCERTAINTY_ASSIGNED_CONTEXT ( ( #68 ) ) GLOBAL_UNIT_ASSIGNED_CONTEXT ( ( #82, #188, #154 ) ) REPRESENTATION_CONTEXT ( 'NONE', 'WORKASPACE' ) );
#108 = FACE_OUTER_BOUND ( 'NONE', #127, .T. ) ;
#109 = CARTESIAN_POINT ( 'NONE',  ( 1.047444401652940007E-13, -3.673940397442059178E-15, 30.00000000000000000 ) ) ;
#110 = EDGE_LOOP ( 'NONE', ( #53 ) ) ;
#111 = EDGE_LOOP ( 'NONE', ( #95 ) ) ;
#112 = EDGE_CURVE ( 'NONE', #65, #65, #62, .T. ) ;
#113 = DIRECTION ( 'NONE',  ( -4.275831445896958607E-31, -1.000000000000000000, -1.224646799147353207E-16 ) ) ;
#114 = DIRECTION ( 'NONE',  ( 0.0000000000000000000, 0.0000000000000000000, 1.000000000000000000 ) ) ;
#115 = AXIS2_PLACEMENT_3D ( 'NONE', #202, #171, #187 ) ;
#116 = CIRCLE ( 'NONE', #144, 0.6999999999999997335 ) ;
#117 = MECHANICAL_CONTEXT ( 'NONE', #54, 'mechanical' ) ;
#118 = CC_DESIGN_PERSON_AND_ORGANIZATION_ASSIGNMENT ( #60, #103, ( #33 ) ) ;
#119 = PERSON_AND_ORGANIZATION ( #78, #185 ) ;
#120 = APPROVAL_DATE_TIME ( #16, #74 ) ;
#121 = CC_DESIGN_PERSON_AND_ORGANIZATION_ASSIGNMENT ( #119, #18, ( #93 ) ) ;
#122 = APPROVAL_STATUS ( 'not_yet_approved' ) ;
#123 = EDGE_CURVE ( 'NONE', #42, #42, #116, .T. ) ;
#124 = FACE_OUTER_BOUND ( 'NONE', #24, .T. ) ;
#125 = AXIS2_PLACEMENT_3D ( 'NONE', #81, #61, #9 ) ;
#126 = PLANE ( 'NONE',  #206 ) ;
#127 = EDGE_LOOP ( 'NONE', ( #49 ) ) ;
#128 = EDGE_LOOP ( 'NONE', ( #217 ) ) ;
#129 = CARTESIAN_POINT ( 'NONE',  ( 3.940696214867083139E-14, -1.382210167432284378E-15, 11.28660254037844091 ) ) ;
#130 = DIRECTION ( 'NONE',  ( 3.491481338843133355E-15, -1.224646799147353207E-16, 1.000000000000000000 ) ) ;
#131 = DIRECTION ( 'NONE',  ( -3.491481338843133355E-15, 1.224646799147353207E-16, -1.000000000000000000 ) ) ;
#132 = CARTESIAN_POINT ( 'NONE',  ( 0.0000000000000000000, 0.0000000000000000000, 0.0000000000000000000 ) ) ;
#133 = AXIS2_PLACEMENT_3D ( 'NONE', #138, #197, #139 ) ;
#134 = DATE_TIME_ROLE ( 'classification_date' ) ;
#135 = APPROVAL ( #122, 'UNSPECIFIED' ) ;
#136 = COORDINATED_UNIVERSAL_TIME_OFFSET ( 1, 0, .AHEAD. ) ;
#137 = LOCAL_TIME ( 10, 11, 49.00000000000000000, #14 ) ;
#138 = CARTESIAN_POINT ( 'NONE',  ( 0.0000000000000000000, 0.0000000000000000000, 0.0000000000000000000 ) ) ;
#139 = DIRECTION ( 'NONE',  ( 4.275831445896957731E-31, 1.000000000000000000, 1.224646799147352961E-16 ) ) ;
#140 = SECURITY_CLASSIFICATION_LEVEL ( 'unclassified' ) ;
#141 = AXIS2_PLACEMENT_3D ( 'NONE', #132, #114, #45 ) ;
#142 = FACE_OUTER_BOUND ( 'NONE', #128, .T. ) ;
#143 = DATE_AND_TIME ( #96, #38 ) ;
#144 = AXIS2_PLACEMENT_3D ( 'NONE', #5, #52, #36 ) ;
#145 = DIRECTION ( 'NONE',  ( 3.491481338843133355E-15, -1.224646799147353207E-16, 1.000000000000000000 ) ) ;
#146 = DIRECTION ( 'NONE',  ( -3.491481338843133355E-15, 1.224646799147353207E-16, -1.000000000000000000 ) ) ;
#147 = VERTEX_POINT ( 'NONE', #101 ) ;
#148 = DIRECTION ( 'NONE',  ( 0.0000000000000000000, 1.000000000000000000, 0.0000000000000000000 ) ) ;
#149 = DIRECTION ( 'NONE',  ( -5.502656983963541894E-31, -1.000000000000000000, -1.548860246407866541E-16 ) ) ;
#150 = CARTESIAN_POINT ( 'NONE',  ( 1.040461438975253740E-13, 0.7499999999999963363, 29.80000000000000071 ) ) ;
#151 = FACE_OUTER_BOUND ( 'NONE', #37, .T. ) ;
#152 = APPLICATION_PROTOCOL_DEFINITION ( 'international standard', 'config_control_design', 1994, #201 ) ;
#153 = ADVANCED_FACE ( 'NONE', ( #151 ), #175, .T. ) ;
#154 =( NAMED_UNIT ( * ) SI_UNIT ( $, .STERADIAN. ) SOLID_ANGLE_UNIT ( ) );
#155 = EDGE_CURVE ( 'NONE', #147, #147, #104, .T. ) ;
#156 = APPROVAL_STATUS ( 'not_yet_approved' ) ;
#157 = AXIS2_PLACEMENT_3D ( 'NONE', #80, #131, #148 ) ;
#158 = PRODUCT_RELATED_PRODUCT_CATEGORY ( 'detail', '', ( #33 ) ) ;
#159 = CYLINDRICAL_SURFACE ( 'NONE', #133, 0.6999999999999992895 ) ;
#160 = FACE_BOUND ( 'NONE', #198, .T. ) ;
#161 = DATE_AND_TIME ( #207, #29 ) ;
#162 = ORIENTED_EDGE ( 'NONE', *, *, #112, .F. ) ;
#163 = ADVANCED_FACE ( 'NONE', ( #27, #218 ), #48, .T. ) ;
#164 = DIRECTION ( 'NONE',  ( 4.275831445896958607E-31, 1.000000000000000000, 1.224646799147353207E-16 ) ) ;
#165 = PERSON_AND_ORGANIZATION_ROLE ( 'design_supplier' ) ;
#166 = CIRCLE ( 'NONE', #222, 0.6999999999999997335 ) ;
#167 = CIRCLE ( 'NONE', #157, 0.7500000000000000000 ) ;
#168 = ADVANCED_FACE ( 'NONE', ( #10, #184 ), #170, .T. ) ;
#169 = CARTESIAN_POINT ( 'NONE',  ( 1.047444401652940007E-13, 4.124339402320052999E-33, 30.00000000000000000 ) ) ;
#170 = CYLINDRICAL_SURFACE ( 'NONE', #125, 0.7499999999999988898 ) ;
#171 = DIRECTION ( 'NONE',  ( -3.491481338843133355E-15, 1.224646799147353207E-16, -1.000000000000000000 ) ) ;
#172 = CARTESIAN_POINT ( 'NONE',  ( 3.910459099504309358E-14, 0.6999999999999984013, 11.19999999999999929 ) ) ;
#173 = PERSON_AND_ORGANIZATION ( #78, #185 ) ;
#174 = APPROVAL_PERSON_ORGANIZATION ( #70, #135, #192 ) ;
#175 = CONICAL_SURFACE ( 'NONE', #199, 0.6999999999999986233, 1.047197551196592746 ) ;
#176 = DATE_TIME_ROLE ( 'creation_date' ) ;
#177 = APPROVAL_DATE_TIME ( #105, #135 ) ;
#178 = AXIS2_PLACEMENT_3D ( 'NONE', #169, #211, #164 ) ;
#179 = CC_DESIGN_DATE_AND_TIME_ASSIGNMENT ( #143, #134, ( #221 ) ) ;
#180 = DIRECTION ( 'NONE',  ( -3.491481338843133355E-15, 1.224646799147353207E-16, -1.000000000000000000 ) ) ;
#181 = ORIENTED_EDGE ( 'NONE', *, *, #155, .T. ) ;
#182 = FACE_OUTER_BOUND ( 'NONE', #216, .T. ) ;
#183 = COORDINATED_UNIVERSAL_TIME_OFFSET ( 1, 0, .AHEAD. ) ;
#184 = FACE_OUTER_BOUND ( 'NONE', #111, .T. ) ;
#185 = ORGANIZATION ( 'UNSPECIFIED', 'UNSPECIFIED', '' ) ;
#186 = APPROVAL_ROLE ( '' ) ;
#187 = DIRECTION ( 'NONE',  ( 5.502656983963541894E-31, 1.000000000000000000, 1.548860246407866541E-16 ) ) ;
#188 =( NAMED_UNIT ( * ) PLANE_ANGLE_UNIT ( ) SI_UNIT ( $, .RADIAN. ) );
#189 = SHAPE_DEFINITION_REPRESENTATION ( #40, #22 ) ;
#190 = CC_DESIGN_SECURITY_CLASSIFICATION ( #221, ( #106 ) ) ;
#191 = CALENDAR_DATE ( 2021, 8, 10 ) ;
#192 = APPROVAL_ROLE ( '' ) ;
#193 = EDGE_LOOP ( 'NONE', ( #89 ) ) ;
#194 = CC_DESIGN_PERSON_AND_ORGANIZATION_ASSIGNMENT ( #41, #56, ( #106 ) ) ;
#195 = DIRECTION ( 'NONE',  ( 3.491481338843133355E-15, -1.224646799147353207E-16, 1.000000000000000000 ) ) ;
#196 = PERSON_AND_ORGANIZATION ( #78, #185 ) ;
#197 = DIRECTION ( 'NONE',  ( -3.491481338843133355E-15, 1.224646799147353207E-16, -1.000000000000000000 ) ) ;
#198 = EDGE_LOOP ( 'NONE', ( #92 ) ) ;
#199 = AXIS2_PLACEMENT_3D ( 'NONE', #63, #130, #149 ) ;
#200 = FACE_OUTER_BOUND ( 'NONE', #212, .T. ) ;
#201 = APPLICATION_CONTEXT ( 'configuration controlled 3d designs of mechanical parts and assemblies' ) ;
#202 = CARTESIAN_POINT ( 'NONE',  ( 1.411065383596160008E-15, -4.949351114049612893E-17, 0.4041451884327418864 ) ) ;
#203 = CARTESIAN_POINT ( 'NONE',  ( 3.940696214867083139E-14, -1.382210167432284378E-15, 11.28660254037844091 ) ) ;
#204 = APPROVAL_STATUS ( 'not_yet_approved' ) ;
#205 = AXIS2_PLACEMENT_3D ( 'NONE', #203, #220, #99 ) ;
#206 = AXIS2_PLACEMENT_3D ( 'NONE', #76, #145, #113 ) ;
#207 = CALENDAR_DATE ( 2021, 8, 10 ) ;
#208 = COORDINATED_UNIVERSAL_TIME_OFFSET ( 1, 0, .AHEAD. ) ;
#209 = DESIGN_CONTEXT ( 'detailed design', #201, 'design' ) ;
#210 = CIRCLE ( 'NONE', #84, 0.7499999999999977796 ) ;
#211 = DIRECTION ( 'NONE',  ( -3.491481338843133355E-15, 1.224646799147353207E-16, -1.000000000000000000 ) ) ;
#212 = EDGE_LOOP ( 'NONE', ( #3 ) ) ;
#213 = AXIS2_PLACEMENT_3D ( 'NONE', #109, #180, #23 ) ;
#214 = AXIS2_PLACEMENT_3D ( 'NONE', #75, #215, #91 ) ;
#215 = DIRECTION ( 'NONE',  ( -3.491481338843133355E-15, 1.224646799147353207E-16, -1.000000000000000000 ) ) ;
#216 = EDGE_LOOP ( 'NONE', ( #162 ) ) ;
#217 = ORIENTED_EDGE ( 'NONE', *, *, #123, .T. ) ;
#218 = FACE_OUTER_BOUND ( 'NONE', #193, .T. ) ;
#219 = EDGE_CURVE ( 'NONE', #66, #66, #167, .T. ) ;
#220 = DIRECTION ( 'NONE',  ( 3.491481338843133355E-15, -1.224646799147353207E-16, 1.000000000000000000 ) ) ;
#221 = SECURITY_CLASSIFICATION ( '', '', #140 ) ;
#222 = AXIS2_PLACEMENT_3D ( 'NONE', #21, #146, #55 ) ;
#223 = CALENDAR_DATE ( 2021, 8, 10 ) ;
ENDSEC;
END-ISO-10303-21;
