ISO-10303-21;
HEADER;
FILE_DESCRIPTION (( 'STEP AP203' ),
    '1' );
FILE_NAME ('55768.step',
    '2021-10-08T08:11:47',
    ( '' ),
    ( '' ),
    'SwSTEP 2.0',
    'SolidWorks 2019',
    '' );
FILE_SCHEMA (( 'CONFIG_CONTROL_DESIGN' ));
ENDSEC;

DATA;
#1 = EDGE_LOOP ( 'NONE', ( #56 ) ) ;
#2 = FACE_OUTER_BOUND ( 'NONE', #223, .T. ) ;
#3 = DIRECTION ( 'NONE',  ( -3.491481338843133355E-15, 1.224646799147353207E-16, -1.000000000000000000 ) ) ;
#4 = APPROVAL_ROLE ( '' ) ;
#5 = CARTESIAN_POINT ( 'NONE',  ( 1.360670191324868664E-15, -4.772588574262126476E-17, 0.3897114317030010988 ) ) ;
#6 = DIRECTION ( 'NONE',  ( 0.0000000000000000000, 0.0000000000000000000, 1.000000000000000000 ) ) ;
#7 = EDGE_CURVE ( 'NONE', #102, #102, #116, .T. ) ;
#8 = EDGE_LOOP ( 'NONE', ( #34 ) ) ;
#9 = APPROVAL_ROLE ( '' ) ;
#10 = APPROVAL_PERSON_ORGANIZATION ( #114, #128, #9 ) ;
#11 = CARTESIAN_POINT ( 'NONE',  ( 1.360670191324868861E-15, 0.6749999999999988232, 0.3897114317030012098 ) ) ;
#12 = CARTESIAN_POINT ( 'NONE',  ( 3.955814772548470661E-14, -1.387513043625908810E-15, 11.32990381056766438 ) ) ;
#13 = DATE_TIME_ROLE ( 'classification_date' ) ;
#14 = VERTEX_POINT ( 'NONE', #161 ) ;
#15 = CC_DESIGN_APPROVAL ( #121, ( #171 ) ) ;
#16 = SECURITY_CLASSIFICATION_LEVEL ( 'unclassified' ) ;
#17 = EDGE_LOOP ( 'NONE', ( #122 ) ) ;
#18 = ORIENTED_EDGE ( 'NONE', *, *, #71, .F. ) ;
#19 = EDGE_LOOP ( 'NONE', ( #149 ) ) ;
#20 = CONICAL_SURFACE ( 'NONE', #158, 0.7499999999999977796, 0.5235987755982972613 ) ;
#21 = DIRECTION ( 'NONE',  ( -3.491481338843133355E-15, 1.224646799147353207E-16, -1.000000000000000000 ) ) ;
#22 = EDGE_LOOP ( 'NONE', ( #139 ) ) ;
#23 = CC_DESIGN_PERSON_AND_ORGANIZATION_ASSIGNMENT ( #177, #202, ( #111 ) ) ;
#24 = CIRCLE ( 'NONE', #28, 0.7500000000000000000 ) ;
#25 = AXIS2_PLACEMENT_3D ( 'NONE', #131, #65, #218 ) ;
#26 = PERSON_AND_ORGANIZATION ( #49, #155 ) ;
#27 = PERSON_AND_ORGANIZATION_ROLE ( 'design_owner' ) ;
#28 = AXIS2_PLACEMENT_3D ( 'NONE', #94, #140, #57 ) ;
#29 = LOCAL_TIME ( 10, 11, 47.00000000000000000, #82 ) ;
#30 = APPLICATION_CONTEXT ( 'configuration controlled 3d designs of mechanical parts and assemblies' ) ;
#31 = DIRECTION ( 'NONE',  ( -3.491481338843133355E-15, 1.224646799147353207E-16, -1.000000000000000000 ) ) ;
#32 = DIRECTION ( 'NONE',  ( 3.491481338843133355E-15, -1.224646799147353207E-16, 1.000000000000000000 ) ) ;
#33 = AXIS2_PLACEMENT_3D ( 'NONE', #196, #144, #184 ) ;
#34 = ORIENTED_EDGE ( 'NONE', *, *, #142, .T. ) ;
#35 = ORIENTED_EDGE ( 'NONE', *, *, #71, .T. ) ;
#36 = CIRCLE ( 'NONE', #219, 0.5500000000000000444 ) ;
#37 = CC_DESIGN_PERSON_AND_ORGANIZATION_ASSIGNMENT ( #100, #27, ( #210 ) ) ;
#38 = ORIENTED_EDGE ( 'NONE', *, *, #142, .F. ) ;
#39 = CONICAL_SURFACE ( 'NONE', #58, 0.6749999999999988232, 1.047197551196592968 ) ;
#40 = CC_DESIGN_PERSON_AND_ORGANIZATION_ASSIGNMENT ( #88, #148, ( #111 ) ) ;
#41 = COORDINATED_UNIVERSAL_TIME_OFFSET ( 1, 0, .AHEAD. ) ;
#42 = DATE_TIME_ROLE ( 'creation_date' ) ;
#43 = APPROVAL_DATE_TIME ( #194, #128 ) ;
#44 = CARTESIAN_POINT ( 'NONE',  ( 1.047444401652940007E-13, -3.673940397442059178E-15, 30.00000000000000000 ) ) ;
#45 = COORDINATED_UNIVERSAL_TIME_OFFSET ( 1, 0, .AHEAD. ) ;
#46 = CALENDAR_DATE ( 2021, 8, 10 ) ;
#47 = FACE_OUTER_BOUND ( 'NONE', #8, .T. ) ;
#48 = CLOSED_SHELL ( 'NONE', ( #156, #81, #75 ) ) ;
#49 = PERSON ( 'UNSPECIFIED', 'UNSPECIFIED', 'UNSPECIFIED', ('UNSPECIFIED'), ('UNSPECIFIED'), ('UNSPECIFIED') ) ;
#50 = FACE_OUTER_BOUND ( 'NONE', #22, .T. ) ;
#51 = DIRECTION ( 'NONE',  ( 3.491481338843133355E-15, -1.224646799147353207E-16, 1.000000000000000000 ) ) ;
#52 = CARTESIAN_POINT ( 'NONE',  ( 3.910459099504309358E-14, 5.061689266483741373E-33, 11.19999999999999929 ) ) ;
#53 = AXIS2_PLACEMENT_3D ( 'NONE', #5, #201, #83 ) ;
#54 = PLANE ( 'NONE',  #204 ) ;
#55 = DESIGN_CONTEXT ( 'detailed design', #30, 'design' ) ;
#56 = ORIENTED_EDGE ( 'NONE', *, *, #153, .F. ) ;
#57 = DIRECTION ( 'NONE',  ( 0.0000000000000000000, 1.000000000000000000, 0.0000000000000000000 ) ) ;
#58 = AXIS2_PLACEMENT_3D ( 'NONE', #216, #51, #70 ) ;
#59 = DIRECTION ( 'NONE',  ( 3.491481338843133355E-15, -1.224646799147353207E-16, 1.000000000000000000 ) ) ;
#60 = MECHANICAL_CONTEXT ( 'NONE', #61, 'mechanical' ) ;
#61 = APPLICATION_CONTEXT ( 'configuration controlled 3d designs of mechanical parts and assemblies' ) ;
#62 = APPROVAL ( #214, 'UNSPECIFIED' ) ;
#63 = DIRECTION ( 'NONE',  ( 1.000000000000000000, 0.0000000000000000000, 0.0000000000000000000 ) ) ;
#64 = CALENDAR_DATE ( 2021, 8, 10 ) ;
#65 = DIRECTION ( 'NONE',  ( -3.491481338843133355E-15, 1.224646799147353207E-16, -1.000000000000000000 ) ) ;
#66 = ADVANCED_BREP_SHAPE_REPRESENTATION ( '55768', ( #101, #169, #146 ), #213 ) ;
#67 = CC_DESIGN_DATE_AND_TIME_ASSIGNMENT ( #193, #42, ( #143 ) ) ;
#68 = APPROVAL_ROLE ( '' ) ;
#69 = CYLINDRICAL_SURFACE ( 'NONE', #25, 0.7499999999999988898 ) ;
#70 = DIRECTION ( 'NONE',  ( -2.853229547240354310E-31, -1.000000000000000000, -1.606225440719268586E-16 ) ) ;
#71 = EDGE_CURVE ( 'NONE', #87, #87, #24, .T. ) ;
#72 = CARTESIAN_POINT ( 'NONE',  ( 3.910459099504309358E-14, -1.371604415045035513E-15, 11.19999999999999929 ) ) ;
#73 = EDGE_LOOP ( 'NONE', ( #18 ) ) ;
#74 = UNCERTAINTY_MEASURE_WITH_UNIT (LENGTH_MEASURE( 1.000000000000000082E-05 ), #85, 'distance_accuracy_value', 'NONE');
#75 = ADVANCED_FACE ( 'NONE', ( #189 ), #203, .T. ) ;
#76 = DIRECTION ( 'NONE',  ( 0.0000000000000000000, 1.000000000000000000, 0.0000000000000000000 ) ) ;
#77 = AXIS2_PLACEMENT_3D ( 'NONE', #152, #110, #205 ) ;
#78 = CARTESIAN_POINT ( 'NONE',  ( 0.0000000000000000000, 0.0000000000000000000, 0.0000000000000000000 ) ) ;
#79 = PRODUCT_DEFINITION_SHAPE ( 'NONE', 'NONE',  #143 ) ;
#80 = CIRCLE ( 'NONE', #33, 0.6749999999999990452 ) ;
#81 = ADVANCED_FACE ( 'NONE', ( #2, #209 ), #187, .T. ) ;
#82 = COORDINATED_UNIVERSAL_TIME_OFFSET ( 1, 0, .AHEAD. ) ;
#83 = DIRECTION ( 'NONE',  ( 2.853229547240354310E-31, 1.000000000000000000, 1.606225440719268586E-16 ) ) ;
#84 = DATE_AND_TIME ( #46, #134 ) ;
#85 =( LENGTH_UNIT ( ) NAMED_UNIT ( * ) SI_UNIT ( .MILLI., .METRE. ) );
#86 = PERSON_AND_ORGANIZATION ( #49, #155 ) ;
#87 = VERTEX_POINT ( 'NONE', #164 ) ;
#88 = PERSON_AND_ORGANIZATION ( #49, #155 ) ;
#89 = CARTESIAN_POINT ( 'NONE',  ( 3.910459099504309358E-14, 0.6749999999999976019, 11.19999999999999929 ) ) ;
#90 = EDGE_LOOP ( 'NONE', ( #123 ) ) ;
#91 = EDGE_LOOP ( 'NONE', ( #124 ) ) ;
#92 = AXIS2_PLACEMENT_3D ( 'NONE', #126, #190, #95 ) ;
#93 = CC_DESIGN_PERSON_AND_ORGANIZATION_ASSIGNMENT ( #222, #105, ( #171 ) ) ;
#94 = CARTESIAN_POINT ( 'NONE',  ( 1.040461438975253740E-13, -3.649447461459112464E-15, 29.80000000000000071 ) ) ;
#95 = DIRECTION ( 'NONE',  ( 4.275831445896958607E-31, 1.000000000000000000, 1.224646799147353207E-16 ) ) ;
#96 = CC_DESIGN_DATE_AND_TIME_ASSIGNMENT ( #84, #13, ( #171 ) ) ;
#97 = APPLICATION_PROTOCOL_DEFINITION ( 'international standard', 'config_control_design', 1994, #61 ) ;
#98 = LOCAL_TIME ( 10, 11, 47.00000000000000000, #41 ) ;
#99 = APPLICATION_PROTOCOL_DEFINITION ( 'international standard', 'config_control_design', 1994, #30 ) ;
#100 = PERSON_AND_ORGANIZATION ( #49, #155 ) ;
#101 = MANIFOLD_SOLID_BREP ( 'Corps-Déplacer/Copier1[1]', #174 ) ;
#102 = VERTEX_POINT ( 'NONE', #89 ) ;
#103 = DIRECTION ( 'NONE',  ( 0.0000000000000000000, -1.000000000000000000, 0.0000000000000000000 ) ) ;
#104 = COORDINATED_UNIVERSAL_TIME_OFFSET ( 1, 0, .AHEAD. ) ;
#105 = PERSON_AND_ORGANIZATION_ROLE ( 'classification_officer' ) ;
#106 = DIRECTION ( 'NONE',  ( 3.491481338843133355E-15, -1.224646799147353207E-16, 1.000000000000000000 ) ) ;
#107 = VERTEX_POINT ( 'NONE', #11 ) ;
#108 = CIRCLE ( 'NONE', #53, 0.6749999999999988232 ) ;
#109 = EDGE_CURVE ( 'NONE', #14, #14, #130, .T. ) ;
#110 = DIRECTION ( 'NONE',  ( -3.491481338843133355E-15, 1.224646799147353207E-16, -1.000000000000000000 ) ) ;
#111 = PRODUCT_DEFINITION_FORMATION_WITH_SPECIFIED_SOURCE ( 'ANY', '', #210, .NOT_KNOWN. ) ;
#112 = LOCAL_TIME ( 10, 11, 47.00000000000000000, #104 ) ;
#113 = ADVANCED_FACE ( 'NONE', ( #154 ), #54, .F. ) ;
#114 = PERSON_AND_ORGANIZATION ( #49, #155 ) ;
#115 = FACE_BOUND ( 'NONE', #91, .T. ) ;
#116 = CIRCLE ( 'NONE', #191, 0.6749999999999990452 ) ;
#117 = ADVANCED_FACE ( 'NONE', ( #168, #115 ), #133, .T. ) ;
#118 = FACE_OUTER_BOUND ( 'NONE', #186, .T. ) ;
#119 = PLANE ( 'NONE',  #138 ) ;
#120 = FACE_OUTER_BOUND ( 'NONE', #17, .T. ) ;
#121 = APPROVAL ( #217, 'UNSPECIFIED' ) ;
#122 = ORIENTED_EDGE ( 'NONE', *, *, #109, .T. ) ;
#123 = ORIENTED_EDGE ( 'NONE', *, *, #176, .F. ) ;
#124 = ORIENTED_EDGE ( 'NONE', *, *, #176, .T. ) ;
#125 = DIRECTION ( 'NONE',  ( -4.275831445896958607E-31, -1.000000000000000000, -1.224646799147353207E-16 ) ) ;
#126 = CARTESIAN_POINT ( 'NONE',  ( 0.0000000000000000000, 0.0000000000000000000, 0.0000000000000000000 ) ) ;
#127 = PERSON_AND_ORGANIZATION ( #49, #155 ) ;
#128 = APPROVAL ( #175, 'UNSPECIFIED' ) ;
#129 = CALENDAR_DATE ( 2021, 8, 10 ) ;
#130 = CIRCLE ( 'NONE', #77, 0.7499999999999977796 ) ;
#131 = CARTESIAN_POINT ( 'NONE',  ( 0.0000000000000000000, 0.0000000000000000000, 0.0000000000000000000 ) ) ;
#132 =( NAMED_UNIT ( * ) SI_UNIT ( $, .STERADIAN. ) SOLID_ANGLE_UNIT ( ) );
#133 = CONICAL_SURFACE ( 'NONE', #197, 0.5500000000000000444, 0.7853981633974512766 ) ;
#134 = LOCAL_TIME ( 10, 11, 47.00000000000000000, #178 ) ;
#135 = DATE_AND_TIME ( #200, #112 ) ;
#136 = CARTESIAN_POINT ( 'NONE',  ( 1.047444401652940007E-13, 0.5499999999999963807, 30.00000000000000000 ) ) ;
#137 = FACE_OUTER_BOUND ( 'NONE', #151, .T. ) ;
#138 = AXIS2_PLACEMENT_3D ( 'NONE', #181, #32, #147 ) ;
#139 = ORIENTED_EDGE ( 'NONE', *, *, #153, .T. ) ;
#140 = DIRECTION ( 'NONE',  ( -3.491481338843133355E-15, 1.224646799147353207E-16, -1.000000000000000000 ) ) ;
#141 = DIRECTION ( 'NONE',  ( -3.491481338843133355E-15, 1.224646799147353207E-16, -1.000000000000000000 ) ) ;
#142 = EDGE_CURVE ( 'NONE', #107, #107, #108, .T. ) ;
#143 = PRODUCT_DEFINITION ( 'UNKNOWN', '', #111, #55 ) ;
#144 = DIRECTION ( 'NONE',  ( -3.491481338843133355E-15, 1.224646799147353207E-16, -1.000000000000000000 ) ) ;
#145 = VERTEX_POINT ( 'NONE', #136 ) ;
#146 = AXIS2_PLACEMENT_3D ( 'NONE', #78, #6, #63 ) ;
#147 = DIRECTION ( 'NONE',  ( -4.275831445896958607E-31, -1.000000000000000000, -1.224646799147353207E-16 ) ) ;
#148 = PERSON_AND_ORGANIZATION_ROLE ( 'design_supplier' ) ;
#149 = ORIENTED_EDGE ( 'NONE', *, *, #7, .T. ) ;
#150 = AXIS2_PLACEMENT_3D ( 'NONE', #52, #59, #125 ) ;
#151 = EDGE_LOOP ( 'NONE', ( #35 ) ) ;
#152 = CARTESIAN_POINT ( 'NONE',  ( 3.955814772548470661E-14, -1.387513043625908810E-15, 11.32990381056766438 ) ) ;
#153 = EDGE_CURVE ( 'NONE', #221, #221, #80, .T. ) ;
#154 = FACE_OUTER_BOUND ( 'NONE', #90, .T. ) ;
#155 = ORGANIZATION ( 'UNSPECIFIED', 'UNSPECIFIED', '' ) ;
#156 = ADVANCED_FACE ( 'NONE', ( #47 ), #39, .T. ) ;
#157 = DIRECTION ( 'NONE',  ( 0.0000000000000000000, 1.000000000000000000, 0.0000000000000000000 ) ) ;
#158 = AXIS2_PLACEMENT_3D ( 'NONE', #12, #106, #103 ) ;
#159 = APPROVAL_PERSON_ORGANIZATION ( #86, #121, #68 ) ;
#160 = CARTESIAN_POINT ( 'NONE',  ( 3.910459099504309358E-14, 0.6749999999999976019, 11.19999999999999929 ) ) ;
#161 = CARTESIAN_POINT ( 'NONE',  ( 3.955814772548470661E-14, 0.7499999999999963363, 11.32990381056766438 ) ) ;
#162 = CC_DESIGN_PERSON_AND_ORGANIZATION_ASSIGNMENT ( #127, #192, ( #143 ) ) ;
#163 = FACE_BOUND ( 'NONE', #1, .T. ) ;
#164 = CARTESIAN_POINT ( 'NONE',  ( 1.040461438975253740E-13, 0.7499999999999963363, 29.80000000000000071 ) ) ;
#165 =( NAMED_UNIT ( * ) PLANE_ANGLE_UNIT ( ) SI_UNIT ( $, .RADIAN. ) );
#166 = ADVANCED_FACE ( 'NONE', ( #118, #137 ), #69, .T. ) ;
#167 = ORIENTED_EDGE ( 'NONE', *, *, #7, .F. ) ;
#168 = FACE_OUTER_BOUND ( 'NONE', #73, .T. ) ;
#169 = MANIFOLD_SOLID_BREP ( 'Corps-Déplacer/Copier1[2]', #48 ) ;
#170 = APPROVAL_PERSON_ORGANIZATION ( #26, #62, #4 ) ;
#171 = SECURITY_CLASSIFICATION ( '', '', #16 ) ;
#172 = APPROVAL_DATE_TIME ( #173, #62 ) ;
#173 = DATE_AND_TIME ( #64, #188 ) ;
#174 = CLOSED_SHELL ( 'NONE', ( #195, #211, #166, #117, #113 ) ) ;
#175 = APPROVAL_STATUS ( 'not_yet_approved' ) ;
#176 = EDGE_CURVE ( 'NONE', #145, #145, #36, .T. ) ;
#177 = PERSON_AND_ORGANIZATION ( #49, #155 ) ;
#178 = COORDINATED_UNIVERSAL_TIME_OFFSET ( 1, 0, .AHEAD. ) ;
#179 = DIRECTION ( 'NONE',  ( 0.0000000000000000000, 1.000000000000000000, 0.0000000000000000000 ) ) ;
#180 = PRODUCT_RELATED_PRODUCT_CATEGORY ( 'detail', '', ( #210 ) ) ;
#181 = CARTESIAN_POINT ( 'NONE',  ( 3.910459099504309358E-14, 5.061689266483741373E-33, 11.19999999999999929 ) ) ;
#182 = CARTESIAN_POINT ( 'NONE',  ( 1.047444401652940007E-13, -3.673940397442059178E-15, 30.00000000000000000 ) ) ;
#183 = APPROVAL_DATE_TIME ( #135, #121 ) ;
#184 = DIRECTION ( 'NONE',  ( 0.0000000000000000000, 1.000000000000000000, 0.0000000000000000000 ) ) ;
#185 = CC_DESIGN_APPROVAL ( #62, ( #143 ) ) ;
#186 = EDGE_LOOP ( 'NONE', ( #207 ) ) ;
#187 = CYLINDRICAL_SURFACE ( 'NONE', #92, 0.6749999999999989342 ) ;
#188 = LOCAL_TIME ( 10, 11, 47.00000000000000000, #45 ) ;
#189 = FACE_OUTER_BOUND ( 'NONE', #212, .T. ) ;
#190 = DIRECTION ( 'NONE',  ( -3.491481338843133355E-15, 1.224646799147353207E-16, -1.000000000000000000 ) ) ;
#191 = AXIS2_PLACEMENT_3D ( 'NONE', #72, #21, #76 ) ;
#192 = PERSON_AND_ORGANIZATION_ROLE ( 'creator' ) ;
#193 = DATE_AND_TIME ( #129, #98 ) ;
#194 = DATE_AND_TIME ( #215, #29 ) ;
#195 = ADVANCED_FACE ( 'NONE', ( #50 ), #119, .F. ) ;
#196 = CARTESIAN_POINT ( 'NONE',  ( 3.910459099504309358E-14, -1.371604415045035513E-15, 11.19999999999999929 ) ) ;
#197 = AXIS2_PLACEMENT_3D ( 'NONE', #44, #3, #157 ) ;
#198 = CC_DESIGN_APPROVAL ( #128, ( #111 ) ) ;
#199 = SHAPE_DEFINITION_REPRESENTATION ( #79, #66 ) ;
#200 = CALENDAR_DATE ( 2021, 8, 10 ) ;
#201 = DIRECTION ( 'NONE',  ( -3.491481338843133355E-15, 1.224646799147353207E-16, -1.000000000000000000 ) ) ;
#202 = PERSON_AND_ORGANIZATION_ROLE ( 'creator' ) ;
#203 = PLANE ( 'NONE',  #150 ) ;
#204 = AXIS2_PLACEMENT_3D ( 'NONE', #206, #141, #208 ) ;
#205 = DIRECTION ( 'NONE',  ( 0.0000000000000000000, 1.000000000000000000, 0.0000000000000000000 ) ) ;
#206 = CARTESIAN_POINT ( 'NONE',  ( 1.047444401652940007E-13, 4.124339402320052999E-33, 30.00000000000000000 ) ) ;
#207 = ORIENTED_EDGE ( 'NONE', *, *, #109, .F. ) ;
#208 = DIRECTION ( 'NONE',  ( 4.275831445896958607E-31, 1.000000000000000000, 1.224646799147353207E-16 ) ) ;
#209 = FACE_OUTER_BOUND ( 'NONE', #19, .T. ) ;
#210 = PRODUCT ( '55768', '55768', '', ( #60 ) ) ;
#211 = ADVANCED_FACE ( 'NONE', ( #163, #120 ), #20, .T. ) ;
#212 = EDGE_LOOP ( 'NONE', ( #167 ) ) ;
#213 =( GEOMETRIC_REPRESENTATION_CONTEXT ( 3 ) GLOBAL_UNCERTAINTY_ASSIGNED_CONTEXT ( ( #74 ) ) GLOBAL_UNIT_ASSIGNED_CONTEXT ( ( #85, #165, #132 ) ) REPRESENTATION_CONTEXT ( 'NONE', 'WORKASPACE' ) );
#214 = APPROVAL_STATUS ( 'not_yet_approved' ) ;
#215 = CALENDAR_DATE ( 2021, 8, 10 ) ;
#216 = CARTESIAN_POINT ( 'NONE',  ( 1.360670191324868664E-15, -4.772588574262126476E-17, 0.3897114317030010988 ) ) ;
#217 = APPROVAL_STATUS ( 'not_yet_approved' ) ;
#218 = DIRECTION ( 'NONE',  ( 4.275831445896959482E-31, 1.000000000000000000, 1.224646799147353207E-16 ) ) ;
#219 = AXIS2_PLACEMENT_3D ( 'NONE', #182, #31, #179 ) ;
#220 = CC_DESIGN_SECURITY_CLASSIFICATION ( #171, ( #111 ) ) ;
#221 = VERTEX_POINT ( 'NONE', #160 ) ;
#222 = PERSON_AND_ORGANIZATION ( #49, #155 ) ;
#223 = EDGE_LOOP ( 'NONE', ( #38 ) ) ;
ENDSEC;
END-ISO-10303-21;
