ISO-10303-21;
HEADER;
FILE_DESCRIPTION (( 'STEP AP203' ),
    '1' );
FILE_NAME ('55766.step',
    '2021-10-08T08:11:46',
    ( '' ),
    ( '' ),
    'SwSTEP 2.0',
    'SolidWorks 2019',
    '' );
FILE_SCHEMA (( 'CONFIG_CONTROL_DESIGN' ));
ENDSEC;

DATA;
#1 = AXIS2_PLACEMENT_3D ( 'NONE', #158, #125, #107 ) ;
#2 = DIRECTION ( 'NONE',  ( -3.491481338843133355E-15, 1.224646799147353207E-16, -1.000000000000000000 ) ) ;
#3 = CARTESIAN_POINT ( 'NONE',  ( 1.310274999053577517E-15, 0.6499999999999988010, 0.3752776749732604222 ) ) ;
#4 = EDGE_LOOP ( 'NONE', ( #179 ) ) ;
#5 = APPLICATION_PROTOCOL_DEFINITION ( 'international standard', 'config_control_design', 1994, #50 ) ;
#6 = EDGE_LOOP ( 'NONE', ( #103 ) ) ;
#7 = DIRECTION ( 'NONE',  ( 0.0000000000000000000, 0.0000000000000000000, 1.000000000000000000 ) ) ;
#8 = ADVANCED_FACE ( 'NONE', ( #185, #221 ), #11, .T. ) ;
#9 = APPROVAL_ROLE ( '' ) ;
#10 = AXIS2_PLACEMENT_3D ( 'NONE', #168, #86, #120 ) ;
#11 = CYLINDRICAL_SURFACE ( 'NONE', #205, 0.6499999999999993561 ) ;
#12 = APPROVAL_ROLE ( '' ) ;
#13 = EDGE_LOOP ( 'NONE', ( #150 ) ) ;
#14 = EDGE_LOOP ( 'NONE', ( #165 ) ) ;
#15 = EDGE_CURVE ( 'NONE', #112, #112, #138, .T. ) ;
#16 = DIRECTION ( 'NONE',  ( -4.275831445896958607E-31, -1.000000000000000000, -1.224646799147353207E-16 ) ) ;
#17 = DIRECTION ( 'NONE',  ( -3.491481338843133355E-15, 1.224646799147353207E-16, -1.000000000000000000 ) ) ;
#18 = DIRECTION ( 'NONE',  ( 0.0000000000000000000, 1.000000000000000000, 0.0000000000000000000 ) ) ;
#19 = CARTESIAN_POINT ( 'NONE',  ( 1.047444401652940007E-13, -3.673940397442059178E-15, 30.00000000000000000 ) ) ;
#20 = FACE_OUTER_BOUND ( 'NONE', #204, .T. ) ;
#21 = AXIS2_PLACEMENT_3D ( 'NONE', #139, #17, #18 ) ;
#22 = ADVANCED_FACE ( 'NONE', ( #31 ), #68, .F. ) ;
#23 = FACE_BOUND ( 'NONE', #90, .T. ) ;
#24 = LOCAL_TIME ( 10, 11, 46.00000000000000000, #43 ) ;
#25 = PERSON_AND_ORGANIZATION ( #80, #72 ) ;
#26 = APPROVAL_ROLE ( '' ) ;
#27 = DIRECTION ( 'NONE',  ( -3.491481338843133355E-15, 1.224646799147353207E-16, -1.000000000000000000 ) ) ;
#28 = AXIS2_PLACEMENT_3D ( 'NONE', #181, #114, #143 ) ;
#29 = PERSON_AND_ORGANIZATION ( #80, #72 ) ;
#30 = AXIS2_PLACEMENT_3D ( 'NONE', #64, #69, #202 ) ;
#31 = FACE_OUTER_BOUND ( 'NONE', #14, .T. ) ;
#32 = PLANE ( 'NONE',  #94 ) ;
#33 = CC_DESIGN_APPROVAL ( #208, ( #180 ) ) ;
#34 = CC_DESIGN_DATE_AND_TIME_ASSIGNMENT ( #131, #45, ( #180 ) ) ;
#35 = ADVANCED_FACE ( 'NONE', ( #135 ), #104, .T. ) ;
#36 = CARTESIAN_POINT ( 'NONE',  ( 3.551955569568682180E-14, -1.245858303921851380E-15, 10.17320508075688679 ) ) ;
#37 = CARTESIAN_POINT ( 'NONE',  ( 3.551955569568682180E-14, 0.7499999999999963363, 10.17320508075688679 ) ) ;
#38 =( NAMED_UNIT ( * ) SI_UNIT ( $, .STERADIAN. ) SOLID_ANGLE_UNIT ( ) );
#39 = APPROVAL_PERSON_ORGANIZATION ( #127, #60, #9 ) ;
#40 = CC_DESIGN_PERSON_AND_ORGANIZATION_ASSIGNMENT ( #25, #99, ( #51 ) ) ;
#41 = AXIS2_PLACEMENT_3D ( 'NONE', #174, #132, #122 ) ;
#42 = APPROVAL_PERSON_ORGANIZATION ( #102, #191, #12 ) ;
#43 = COORDINATED_UNIVERSAL_TIME_OFFSET ( 1, 0, .AHEAD. ) ;
#44 = EDGE_LOOP ( 'NONE', ( #91 ) ) ;
#45 = DATE_TIME_ROLE ( 'classification_date' ) ;
#46 = CARTESIAN_POINT ( 'NONE',  ( 0.0000000000000000000, 0.0000000000000000000, 0.0000000000000000000 ) ) ;
#47 = AXIS2_PLACEMENT_3D ( 'NONE', #36, #129, #144 ) ;
#48 = DATE_AND_TIME ( #220, #142 ) ;
#49 = EDGE_LOOP ( 'NONE', ( #173 ) ) ;
#50 = APPLICATION_CONTEXT ( 'configuration controlled 3d designs of mechanical parts and assemblies' ) ;
#51 = PRODUCT_DEFINITION_FORMATION_WITH_SPECIFIED_SOURCE ( 'ANY', '', #214, .NOT_KNOWN. ) ;
#52 = AXIS2_PLACEMENT_3D ( 'NONE', #188, #148, #118 ) ;
#53 = DIRECTION ( 'NONE',  ( -3.491481338843133355E-15, 1.224646799147353207E-16, -1.000000000000000000 ) ) ;
#54 = APPLICATION_PROTOCOL_DEFINITION ( 'international standard', 'config_control_design', 1994, #119 ) ;
#55 =( LENGTH_UNIT ( ) NAMED_UNIT ( * ) SI_UNIT ( .MILLI., .METRE. ) );
#56 = CARTESIAN_POINT ( 'NONE',  ( 3.551955569568682180E-14, -1.245858303921851380E-15, 10.17320508075688679 ) ) ;
#57 = CC_DESIGN_DATE_AND_TIME_ASSIGNMENT ( #85, #213, ( #201 ) ) ;
#58 = AXIS2_PLACEMENT_3D ( 'NONE', #93, #53, #71 ) ;
#59 = MANIFOLD_SOLID_BREP ( 'Corps-Déplacer/Copier1[2]', #73 ) ;
#60 = APPROVAL ( #87, 'UNSPECIFIED' ) ;
#61 = CALENDAR_DATE ( 2021, 8, 10 ) ;
#62 = EDGE_LOOP ( 'NONE', ( #152 ) ) ;
#63 = COORDINATED_UNIVERSAL_TIME_OFFSET ( 1, 0, .AHEAD. ) ;
#64 = CARTESIAN_POINT ( 'NONE',  ( 0.0000000000000000000, 0.0000000000000000000, 0.0000000000000000000 ) ) ;
#65 = PERSON_AND_ORGANIZATION_ROLE ( 'creator' ) ;
#66 = DIRECTION ( 'NONE',  ( 4.275831445896958607E-31, 1.000000000000000000, 1.224646799147353207E-16 ) ) ;
#67 = LOCAL_TIME ( 10, 11, 46.00000000000000000, #199 ) ;
#68 = PLANE ( 'NONE',  #123 ) ;
#69 = DIRECTION ( 'NONE',  ( -3.491481338843133355E-15, 1.224646799147353207E-16, -1.000000000000000000 ) ) ;
#70 = ADVANCED_FACE ( 'NONE', ( #88 ), #32, .F. ) ;
#71 = DIRECTION ( 'NONE',  ( 0.0000000000000000000, 1.000000000000000000, 0.0000000000000000000 ) ) ;
#72 = ORGANIZATION ( 'UNSPECIFIED', 'UNSPECIFIED', '' ) ;
#73 = CLOSED_SHELL ( 'NONE', ( #35, #8, #113 ) ) ;
#74 = ADVANCED_FACE ( 'NONE', ( #92, #156 ), #223, .T. ) ;
#75 = PERSON_AND_ORGANIZATION_ROLE ( 'design_owner' ) ;
#76 = DIRECTION ( 'NONE',  ( -3.491481338843133355E-15, 1.224646799147353207E-16, -1.000000000000000000 ) ) ;
#77 = AXIS2_PLACEMENT_3D ( 'NONE', #19, #2, #163 ) ;
#78 = CC_DESIGN_PERSON_AND_ORGANIZATION_ASSIGNMENT ( #198, #75, ( #214 ) ) ;
#79 = CARTESIAN_POINT ( 'NONE',  ( 3.491481338843133355E-14, 0.6499999999999986899, 10.00000000000000000 ) ) ;
#80 = PERSON ( 'UNSPECIFIED', 'UNSPECIFIED', 'UNSPECIFIED', ('UNSPECIFIED'), ('UNSPECIFIED'), ('UNSPECIFIED') ) ;
#81 = DESIGN_CONTEXT ( 'detailed design', #119, 'design' ) ;
#82 = DATE_AND_TIME ( #184, #67 ) ;
#83 = ADVANCED_BREP_SHAPE_REPRESENTATION ( '55766', ( #206, #59, #108 ), #196 ) ;
#84 = APPROVAL_DATE_TIME ( #82, #60 ) ;
#85 = DATE_AND_TIME ( #212, #24 ) ;
#86 = DIRECTION ( 'NONE',  ( -3.491481338843133355E-15, 1.224646799147353207E-16, -1.000000000000000000 ) ) ;
#87 = APPROVAL_STATUS ( 'not_yet_approved' ) ;
#88 = FACE_OUTER_BOUND ( 'NONE', #13, .T. ) ;
#89 = PERSON_AND_ORGANIZATION ( #80, #72 ) ;
#90 = EDGE_LOOP ( 'NONE', ( #140 ) ) ;
#91 = ORIENTED_EDGE ( 'NONE', *, *, #15, .F. ) ;
#92 = FACE_OUTER_BOUND ( 'NONE', #115, .T. ) ;
#93 = CARTESIAN_POINT ( 'NONE',  ( 1.040461438975253740E-13, -3.649447461459112464E-15, 29.80000000000000071 ) ) ;
#94 = AXIS2_PLACEMENT_3D ( 'NONE', #106, #175, #16 ) ;
#95 = PRODUCT_DEFINITION_SHAPE ( 'NONE', 'NONE',  #201 ) ;
#96 =( NAMED_UNIT ( * ) PLANE_ANGLE_UNIT ( ) SI_UNIT ( $, .RADIAN. ) );
#97 = DIRECTION ( 'NONE',  ( 0.0000000000000000000, 1.000000000000000000, 0.0000000000000000000 ) ) ;
#98 = CC_DESIGN_APPROVAL ( #191, ( #51 ) ) ;
#99 = PERSON_AND_ORGANIZATION_ROLE ( 'design_supplier' ) ;
#100 = EDGE_LOOP ( 'NONE', ( #105 ) ) ;
#101 = EDGE_CURVE ( 'NONE', #197, #197, #111, .T. ) ;
#102 = PERSON_AND_ORGANIZATION ( #80, #72 ) ;
#103 = ORIENTED_EDGE ( 'NONE', *, *, #153, .F. ) ;
#104 = CONICAL_SURFACE ( 'NONE', #52, 0.6499999999999988010, 1.047197551196592746 ) ;
#105 = ORIENTED_EDGE ( 'NONE', *, *, #101, .F. ) ;
#106 = CARTESIAN_POINT ( 'NONE',  ( 3.491481338843133355E-14, 4.874219293651018751E-33, 10.00000000000000000 ) ) ;
#107 = DIRECTION ( 'NONE',  ( -4.275831445896958607E-31, -1.000000000000000000, -1.224646799147353207E-16 ) ) ;
#108 = AXIS2_PLACEMENT_3D ( 'NONE', #145, #7, #210 ) ;
#109 = UNCERTAINTY_MEASURE_WITH_UNIT (LENGTH_MEASURE( 1.000000000000000082E-05 ), #55, 'distance_accuracy_value', 'NONE');
#110 = EDGE_LOOP ( 'NONE', ( #219 ) ) ;
#111 = CIRCLE ( 'NONE', #10, 0.6499999999999988010 ) ;
#112 = VERTEX_POINT ( 'NONE', #195 ) ;
#113 = ADVANCED_FACE ( 'NONE', ( #136 ), #187, .T. ) ;
#114 = DIRECTION ( 'NONE',  ( -3.491481338843133355E-15, 1.224646799147353207E-16, -1.000000000000000000 ) ) ;
#115 = EDGE_LOOP ( 'NONE', ( #194 ) ) ;
#116 = DATE_AND_TIME ( #149, #126 ) ;
#117 = CC_DESIGN_PERSON_AND_ORGANIZATION_ASSIGNMENT ( #29, #133, ( #180 ) ) ;
#118 = DIRECTION ( 'NONE',  ( -2.962969145211137539E-31, -1.000000000000000000, -8.340016711426972545E-17 ) ) ;
#119 = APPLICATION_CONTEXT ( 'configuration controlled 3d designs of mechanical parts and assemblies' ) ;
#120 = DIRECTION ( 'NONE',  ( 2.962969145211137539E-31, 1.000000000000000000, 8.340016711426972545E-17 ) ) ;
#121 = APPROVAL_PERSON_ORGANIZATION ( #200, #208, #26 ) ;
#122 = DIRECTION ( 'NONE',  ( 0.0000000000000000000, 1.000000000000000000, 0.0000000000000000000 ) ) ;
#123 = AXIS2_PLACEMENT_3D ( 'NONE', #190, #27, #154 ) ;
#124 = FACE_OUTER_BOUND ( 'NONE', #6, .T. ) ;
#125 = DIRECTION ( 'NONE',  ( 3.491481338843133355E-15, -1.224646799147353207E-16, 1.000000000000000000 ) ) ;
#126 = LOCAL_TIME ( 10, 11, 46.00000000000000000, #169 ) ;
#127 = PERSON_AND_ORGANIZATION ( #80, #72 ) ;
#128 = VERTEX_POINT ( 'NONE', #79 ) ;
#129 = DIRECTION ( 'NONE',  ( 3.491481338843133355E-15, -1.224646799147353207E-16, 1.000000000000000000 ) ) ;
#130 = CIRCLE ( 'NONE', #21, 0.6499999999999999112 ) ;
#131 = DATE_AND_TIME ( #61, #192 ) ;
#132 = DIRECTION ( 'NONE',  ( -3.491481338843133355E-15, 1.224646799147353207E-16, -1.000000000000000000 ) ) ;
#133 = PERSON_AND_ORGANIZATION_ROLE ( 'classification_officer' ) ;
#134 = ORIENTED_EDGE ( 'NONE', *, *, #186, .T. ) ;
#135 = FACE_OUTER_BOUND ( 'NONE', #49, .T. ) ;
#136 = FACE_OUTER_BOUND ( 'NONE', #44, .T. ) ;
#137 = EDGE_CURVE ( 'NONE', #128, #128, #130, .T. ) ;
#138 = CIRCLE ( 'NONE', #41, 0.6499999999999999112 ) ;
#139 = CARTESIAN_POINT ( 'NONE',  ( 3.491481338843133355E-14, -1.224646799147353256E-15, 10.00000000000000000 ) ) ;
#140 = ORIENTED_EDGE ( 'NONE', *, *, #137, .F. ) ;
#141 = CC_DESIGN_PERSON_AND_ORGANIZATION_ASSIGNMENT ( #89, #216, ( #51 ) ) ;
#142 = LOCAL_TIME ( 10, 11, 46.00000000000000000, #63 ) ;
#143 = DIRECTION ( 'NONE',  ( 0.0000000000000000000, 1.000000000000000000, 0.0000000000000000000 ) ) ;
#144 = DIRECTION ( 'NONE',  ( 0.0000000000000000000, -1.000000000000000000, 0.0000000000000000000 ) ) ;
#145 = CARTESIAN_POINT ( 'NONE',  ( 0.0000000000000000000, 0.0000000000000000000, 0.0000000000000000000 ) ) ;
#146 = APPROVAL_STATUS ( 'not_yet_approved' ) ;
#147 = PERSON_AND_ORGANIZATION ( #80, #72 ) ;
#148 = DIRECTION ( 'NONE',  ( 3.491481338843133355E-15, -1.224646799147353207E-16, 1.000000000000000000 ) ) ;
#149 = CALENDAR_DATE ( 2021, 8, 10 ) ;
#150 = ORIENTED_EDGE ( 'NONE', *, *, #137, .T. ) ;
#151 = APPROVAL_STATUS ( 'not_yet_approved' ) ;
#152 = ORIENTED_EDGE ( 'NONE', *, *, #15, .T. ) ;
#153 = EDGE_CURVE ( 'NONE', #193, #193, #159, .T. ) ;
#154 = DIRECTION ( 'NONE',  ( 4.275831445896958607E-31, 1.000000000000000000, 1.224646799147353207E-16 ) ) ;
#155 = CC_DESIGN_SECURITY_CLASSIFICATION ( #180, ( #51 ) ) ;
#156 = FACE_OUTER_BOUND ( 'NONE', #110, .T. ) ;
#157 = ADVANCED_FACE ( 'NONE', ( #124, #178 ), #217, .T. ) ;
#158 = CARTESIAN_POINT ( 'NONE',  ( 3.491481338843133355E-14, 4.874219293651018751E-33, 10.00000000000000000 ) ) ;
#159 = CIRCLE ( 'NONE', #58, 0.7500000000000000000 ) ;
#160 = CC_DESIGN_PERSON_AND_ORGANIZATION_ASSIGNMENT ( #147, #65, ( #201 ) ) ;
#161 = CARTESIAN_POINT ( 'NONE',  ( 1.040461438975253740E-13, 0.7499999999999963363, 29.80000000000000071 ) ) ;
#162 = CIRCLE ( 'NONE', #28, 0.5500000000000000444 ) ;
#163 = DIRECTION ( 'NONE',  ( 0.0000000000000000000, 1.000000000000000000, 0.0000000000000000000 ) ) ;
#164 = CARTESIAN_POINT ( 'NONE',  ( 1.047444401652940007E-13, 0.5499999999999963807, 30.00000000000000000 ) ) ;
#165 = ORIENTED_EDGE ( 'NONE', *, *, #215, .F. ) ;
#166 = AXIS2_PLACEMENT_3D ( 'NONE', #56, #76, #97 ) ;
#167 = SECURITY_CLASSIFICATION_LEVEL ( 'unclassified' ) ;
#168 = CARTESIAN_POINT ( 'NONE',  ( 1.310274999053577319E-15, -4.595826034474641292E-17, 0.3752776749732603667 ) ) ;
#169 = COORDINATED_UNIVERSAL_TIME_OFFSET ( 1, 0, .AHEAD. ) ;
#170 = DIRECTION ( 'NONE',  ( -3.491481338843133355E-15, 1.224646799147353207E-16, -1.000000000000000000 ) ) ;
#171 = CLOSED_SHELL ( 'NONE', ( #70, #183, #74, #157, #22 ) ) ;
#172 = PRODUCT_RELATED_PRODUCT_CATEGORY ( 'detail', '', ( #214 ) ) ;
#173 = ORIENTED_EDGE ( 'NONE', *, *, #101, .T. ) ;
#174 = CARTESIAN_POINT ( 'NONE',  ( 3.491481338843133355E-14, -1.224646799147353256E-15, 10.00000000000000000 ) ) ;
#175 = DIRECTION ( 'NONE',  ( 3.491481338843133355E-15, -1.224646799147353207E-16, 1.000000000000000000 ) ) ;
#176 = SHAPE_DEFINITION_REPRESENTATION ( #95, #83 ) ;
#177 = CC_DESIGN_APPROVAL ( #60, ( #201 ) ) ;
#178 = FACE_BOUND ( 'NONE', #4, .T. ) ;
#179 = ORIENTED_EDGE ( 'NONE', *, *, #215, .T. ) ;
#180 = SECURITY_CLASSIFICATION ( '', '', #167 ) ;
#181 = CARTESIAN_POINT ( 'NONE',  ( 1.047444401652940007E-13, -3.673940397442059178E-15, 30.00000000000000000 ) ) ;
#182 = VERTEX_POINT ( 'NONE', #37 ) ;
#183 = ADVANCED_FACE ( 'NONE', ( #23, #20 ), #222, .T. ) ;
#184 = CALENDAR_DATE ( 2021, 8, 10 ) ;
#185 = FACE_OUTER_BOUND ( 'NONE', #100, .T. ) ;
#186 = EDGE_CURVE ( 'NONE', #182, #182, #211, .T. ) ;
#187 = PLANE ( 'NONE',  #1 ) ;
#188 = CARTESIAN_POINT ( 'NONE',  ( 1.310274999053577319E-15, -4.595826034474641292E-17, 0.3752776749732603667 ) ) ;
#189 = APPROVAL_DATE_TIME ( #48, #208 ) ;
#190 = CARTESIAN_POINT ( 'NONE',  ( 1.047444401652940007E-13, 4.124339402320052999E-33, 30.00000000000000000 ) ) ;
#191 = APPROVAL ( #146, 'UNSPECIFIED' ) ;
#192 = LOCAL_TIME ( 10, 11, 46.00000000000000000, #218 ) ;
#193 = VERTEX_POINT ( 'NONE', #161 ) ;
#194 = ORIENTED_EDGE ( 'NONE', *, *, #186, .F. ) ;
#195 = CARTESIAN_POINT ( 'NONE',  ( 3.491481338843133355E-14, 0.6499999999999986899, 10.00000000000000000 ) ) ;
#196 =( GEOMETRIC_REPRESENTATION_CONTEXT ( 3 ) GLOBAL_UNCERTAINTY_ASSIGNED_CONTEXT ( ( #109 ) ) GLOBAL_UNIT_ASSIGNED_CONTEXT ( ( #55, #96, #38 ) ) REPRESENTATION_CONTEXT ( 'NONE', 'WORKASPACE' ) );
#197 = VERTEX_POINT ( 'NONE', #3 ) ;
#198 = PERSON_AND_ORGANIZATION ( #80, #72 ) ;
#199 = COORDINATED_UNIVERSAL_TIME_OFFSET ( 1, 0, .AHEAD. ) ;
#200 = PERSON_AND_ORGANIZATION ( #80, #72 ) ;
#201 = PRODUCT_DEFINITION ( 'UNKNOWN', '', #51, #81 ) ;
#202 = DIRECTION ( 'NONE',  ( 4.275831445896959482E-31, 1.000000000000000000, 1.224646799147353207E-16 ) ) ;
#203 = APPROVAL_DATE_TIME ( #116, #191 ) ;
#204 = EDGE_LOOP ( 'NONE', ( #134 ) ) ;
#205 = AXIS2_PLACEMENT_3D ( 'NONE', #46, #170, #66 ) ;
#206 = MANIFOLD_SOLID_BREP ( 'Corps-Déplacer/Copier1[1]', #171 ) ;
#207 = MECHANICAL_CONTEXT ( 'NONE', #50, 'mechanical' ) ;
#208 = APPROVAL ( #151, 'UNSPECIFIED' ) ;
#209 = VERTEX_POINT ( 'NONE', #164 ) ;
#210 = DIRECTION ( 'NONE',  ( 1.000000000000000000, 0.0000000000000000000, 0.0000000000000000000 ) ) ;
#211 = CIRCLE ( 'NONE', #166, 0.7499999999999975575 ) ;
#212 = CALENDAR_DATE ( 2021, 8, 10 ) ;
#213 = DATE_TIME_ROLE ( 'creation_date' ) ;
#214 = PRODUCT ( '55766', '55766', '', ( #207 ) ) ;
#215 = EDGE_CURVE ( 'NONE', #209, #209, #162, .T. ) ;
#216 = PERSON_AND_ORGANIZATION_ROLE ( 'creator' ) ;
#217 = CONICAL_SURFACE ( 'NONE', #77, 0.5500000000000000444, 0.7853981633974512766 ) ;
#218 = COORDINATED_UNIVERSAL_TIME_OFFSET ( 1, 0, .AHEAD. ) ;
#219 = ORIENTED_EDGE ( 'NONE', *, *, #153, .T. ) ;
#220 = CALENDAR_DATE ( 2021, 8, 10 ) ;
#221 = FACE_OUTER_BOUND ( 'NONE', #62, .T. ) ;
#222 = CONICAL_SURFACE ( 'NONE', #47, 0.7499999999999975575, 0.5235987755982918213 ) ;
#223 = CYLINDRICAL_SURFACE ( 'NONE', #30, 0.7499999999999986677 ) ;
ENDSEC;
END-ISO-10303-21;
