ISO-10303-21;
HEADER;
FILE_DESCRIPTION (( 'STEP AP203' ),
    '1' );
FILE_NAME ('55764.step',
    '2021-10-08T08:11:46',
    ( '' ),
    ( '' ),
    'SwSTEP 2.0',
    'SolidWorks 2019',
    '' );
FILE_SCHEMA (( 'CONFIG_CONTROL_DESIGN' ));
ENDSEC;

DATA;
#1 = APPROVAL_DATE_TIME ( #91, #167 ) ;
#2 = CC_DESIGN_SECURITY_CLASSIFICATION ( #205, ( #158 ) ) ;
#3 = DATE_AND_TIME ( #187, #80 ) ;
#4 = FACE_OUTER_BOUND ( 'NONE', #73, .T. ) ;
#5 = SHAPE_DEFINITION_REPRESENTATION ( #102, #209 ) ;
#6 = CARTESIAN_POINT ( 'NONE',  ( 3.491481338843133355E-14, 4.686749320818284498E-33, 10.00000000000000000 ) ) ;
#7 = CONICAL_SURFACE ( 'NONE', #186, 0.6249999999999987788, 1.047197551196592746 ) ;
#8 = CARTESIAN_POINT ( 'NONE',  ( 0.0000000000000000000, 0.0000000000000000000, 0.0000000000000000000 ) ) ;
#9 = DIRECTION ( 'NONE',  ( 4.275831445896959482E-31, 1.000000000000000000, 1.224646799147353207E-16 ) ) ;
#10 = VERTEX_POINT ( 'NONE', #11 ) ;
#11 = CARTESIAN_POINT ( 'NONE',  ( 3.491481338843133355E-14, 0.6249999999999983347, 10.00000000000000000 ) ) ;
#12 = CC_DESIGN_APPROVAL ( #167, ( #158 ) ) ;
#13 = VERTEX_POINT ( 'NONE', #183 ) ;
#14 = DIRECTION ( 'NONE',  ( 0.0000000000000000000, 1.000000000000000000, 0.0000000000000000000 ) ) ;
#15 = EDGE_LOOP ( 'NONE', ( #150 ) ) ;
#16 = DATE_AND_TIME ( #172, #217 ) ;
#17 = ORIENTED_EDGE ( 'NONE', *, *, #40, .F. ) ;
#18 = PERSON_AND_ORGANIZATION ( #179, #48 ) ;
#19 = CARTESIAN_POINT ( 'NONE',  ( 3.491481338843133355E-14, -1.224646799147353256E-15, 10.00000000000000000 ) ) ;
#20 = PERSON_AND_ORGANIZATION ( #179, #48 ) ;
#21 = DIRECTION ( 'NONE',  ( 3.081487911019583496E-31, 1.000000000000000000, 8.673617379884052728E-17 ) ) ;
#22 = PERSON_AND_ORGANIZATION_ROLE ( 'creator' ) ;
#23 = FACE_OUTER_BOUND ( 'NONE', #90, .T. ) ;
#24 = DIRECTION ( 'NONE',  ( 0.0000000000000000000, 1.000000000000000000, 0.0000000000000000000 ) ) ;
#25 = APPROVAL_DATE_TIME ( #214, #180 ) ;
#26 = CC_DESIGN_PERSON_AND_ORGANIZATION_ASSIGNMENT ( #35, #134, ( #34 ) ) ;
#27 = EDGE_CURVE ( 'NONE', #215, #215, #65, .T. ) ;
#28 = CARTESIAN_POINT ( 'NONE',  ( 3.491481338843133355E-14, -1.224646799147353256E-15, 10.00000000000000000 ) ) ;
#29 = APPLICATION_PROTOCOL_DEFINITION ( 'international standard', 'config_control_design', 1994, #70 ) ;
#30 = ORIENTED_EDGE ( 'NONE', *, *, #99, .T. ) ;
#31 = VERTEX_POINT ( 'NONE', #68 ) ;
#32 = APPLICATION_CONTEXT ( 'configuration controlled 3d designs of mechanical parts and assemblies' ) ;
#33 = PERSON_AND_ORGANIZATION ( #179, #48 ) ;
#34 = PRODUCT_DEFINITION ( 'UNKNOWN', '', #158, #103 ) ;
#35 = PERSON_AND_ORGANIZATION ( #179, #48 ) ;
#36 = DIRECTION ( 'NONE',  ( 0.0000000000000000000, 1.000000000000000000, 0.0000000000000000000 ) ) ;
#37 = CARTESIAN_POINT ( 'NONE',  ( 3.491481338843133355E-14, 4.686749320818284498E-33, 10.00000000000000000 ) ) ;
#38 = CIRCLE ( 'NONE', #182, 0.6249999999999995559 ) ;
#39 = CC_DESIGN_PERSON_AND_ORGANIZATION_ASSIGNMENT ( #137, #159, ( #205 ) ) ;
#40 = EDGE_CURVE ( 'NONE', #31, #31, #170, .T. ) ;
#41 = CIRCLE ( 'NONE', #152, 0.6249999999999995559 ) ;
#42 =( NAMED_UNIT ( * ) SI_UNIT ( $, .STERADIAN. ) SOLID_ANGLE_UNIT ( ) );
#43 = FACE_OUTER_BOUND ( 'NONE', #171, .T. ) ;
#44 = PLANE ( 'NONE',  #74 ) ;
#45 = ORIENTED_EDGE ( 'NONE', *, *, #27, .F. ) ;
#46 = CARTESIAN_POINT ( 'NONE',  ( 1.047444401652940007E-13, 4.124339402320052999E-33, 30.00000000000000000 ) ) ;
#47 = PRODUCT ( '55764', '55764', '', ( #88 ) ) ;
#48 = ORGANIZATION ( 'UNSPECIFIED', 'UNSPECIFIED', '' ) ;
#49 = EDGE_LOOP ( 'NONE', ( #30 ) ) ;
#50 = DATE_AND_TIME ( #123, #191 ) ;
#51 = DIRECTION ( 'NONE',  ( -3.491481338843133355E-15, 1.224646799147353207E-16, -1.000000000000000000 ) ) ;
#52 = CLOSED_SHELL ( 'NONE', ( #130, #133, #173, #153, #213 ) ) ;
#53 = DIRECTION ( 'NONE',  ( -3.491481338843133355E-15, 1.224646799147353207E-16, -1.000000000000000000 ) ) ;
#54 = PERSON_AND_ORGANIZATION_ROLE ( 'design_owner' ) ;
#55 = CARTESIAN_POINT ( 'NONE',  ( 1.040461438975253740E-13, -3.649447461459112464E-15, 29.80000000000000071 ) ) ;
#56 = MANIFOLD_SOLID_BREP ( 'Corps-Déplacer/Copier1[1]', #52 ) ;
#57 = CARTESIAN_POINT ( 'NONE',  ( 3.567074127250069701E-14, -1.251161180115475812E-15, 10.21650635094610848 ) ) ;
#58 = AXIS2_PLACEMENT_3D ( 'NONE', #89, #157, #154 ) ;
#59 = DIRECTION ( 'NONE',  ( 0.0000000000000000000, 1.000000000000000000, 0.0000000000000000000 ) ) ;
#60 = CC_DESIGN_PERSON_AND_ORGANIZATION_ASSIGNMENT ( #33, #22, ( #158 ) ) ;
#61 = MANIFOLD_SOLID_BREP ( 'Corps-Déplacer/Copier1[2]', #194 ) ;
#62 =( GEOMETRIC_REPRESENTATION_CONTEXT ( 3 ) GLOBAL_UNCERTAINTY_ASSIGNED_CONTEXT ( ( #136 ) ) GLOBAL_UNIT_ASSIGNED_CONTEXT ( ( #149, #63, #42 ) ) REPRESENTATION_CONTEXT ( 'NONE', 'WORKASPACE' ) );
#63 =( NAMED_UNIT ( * ) PLANE_ANGLE_UNIT ( ) SI_UNIT ( $, .RADIAN. ) );
#64 = AXIS2_PLACEMENT_3D ( 'NONE', #6, #96, #161 ) ;
#65 = CIRCLE ( 'NONE', #125, 0.6249999999999987788 ) ;
#66 = ORIENTED_EDGE ( 'NONE', *, *, #190, .T. ) ;
#67 = ORIENTED_EDGE ( 'NONE', *, *, #27, .T. ) ;
#68 = CARTESIAN_POINT ( 'NONE',  ( 1.040461438975253740E-13, 0.7499999999999963363, 29.80000000000000071 ) ) ;
#69 = CIRCLE ( 'NONE', #86, 0.7499999999999976685 ) ;
#70 = APPLICATION_CONTEXT ( 'configuration controlled 3d designs of mechanical parts and assemblies' ) ;
#71 = PERSON_AND_ORGANIZATION ( #179, #48 ) ;
#72 = DIRECTION ( 'NONE',  ( 3.491481338843133355E-15, -1.224646799147353207E-16, 1.000000000000000000 ) ) ;
#73 = EDGE_LOOP ( 'NONE', ( #184 ) ) ;
#74 = AXIS2_PLACEMENT_3D ( 'NONE', #46, #131, #196 ) ;
#75 = SECURITY_CLASSIFICATION_LEVEL ( 'unclassified' ) ;
#76 = APPROVAL_DATE_TIME ( #3, #163 ) ;
#77 = CC_DESIGN_PERSON_AND_ORGANIZATION_ASSIGNMENT ( #156, #93, ( #158 ) ) ;
#78 = DIRECTION ( 'NONE',  ( 3.491481338843133355E-15, -1.224646799147353207E-16, 1.000000000000000000 ) ) ;
#79 = ADVANCED_FACE ( 'NONE', ( #176, #118 ), #223, .T. ) ;
#80 = LOCAL_TIME ( 10, 11, 46.00000000000000000, #188 ) ;
#81 = CARTESIAN_POINT ( 'NONE',  ( 1.047444401652940007E-13, 0.5499999999999963807, 30.00000000000000000 ) ) ;
#82 = AXIS2_PLACEMENT_3D ( 'NONE', #8, #164, #9 ) ;
#83 = ORIENTED_EDGE ( 'NONE', *, *, #116, .F. ) ;
#84 = VERTEX_POINT ( 'NONE', #115 ) ;
#85 = EDGE_LOOP ( 'NONE', ( #83 ) ) ;
#86 = AXIS2_PLACEMENT_3D ( 'NONE', #57, #192, #59 ) ;
#87 = EDGE_LOOP ( 'NONE', ( #17 ) ) ;
#88 = MECHANICAL_CONTEXT ( 'NONE', #70, 'mechanical' ) ;
#89 = CARTESIAN_POINT ( 'NONE',  ( 0.0000000000000000000, 0.0000000000000000000, 0.0000000000000000000 ) ) ;
#90 = EDGE_LOOP ( 'NONE', ( #67 ) ) ;
#91 = DATE_AND_TIME ( #185, #128 ) ;
#92 = AXIS2_PLACEMENT_3D ( 'NONE', #37, #72, #201 ) ;
#93 = PERSON_AND_ORGANIZATION_ROLE ( 'design_supplier' ) ;
#94 = APPROVAL_PERSON_ORGANIZATION ( #117, #167, #174 ) ;
#95 = CARTESIAN_POINT ( 'NONE',  ( 1.259879806782285975E-15, -4.419063494687154875E-17, 0.3608439182435195791 ) ) ;
#96 = DIRECTION ( 'NONE',  ( 3.491481338843133355E-15, -1.224646799147353207E-16, 1.000000000000000000 ) ) ;
#97 = CC_DESIGN_APPROVAL ( #180, ( #205 ) ) ;
#98 = ADVANCED_FACE ( 'NONE', ( #4 ), #208, .T. ) ;
#99 = EDGE_CURVE ( 'NONE', #13, #13, #38, .T. ) ;
#100 = EDGE_LOOP ( 'NONE', ( #147 ) ) ;
#101 = APPROVAL_PERSON_ORGANIZATION ( #71, #180, #124 ) ;
#102 = PRODUCT_DEFINITION_SHAPE ( 'NONE', 'NONE',  #34 ) ;
#103 = DESIGN_CONTEXT ( 'detailed design', #32, 'design' ) ;
#104 = COORDINATED_UNIVERSAL_TIME_OFFSET ( 1, 0, .AHEAD. ) ;
#105 = COORDINATED_UNIVERSAL_TIME_OFFSET ( 1, 0, .AHEAD. ) ;
#106 = DIRECTION ( 'NONE',  ( -3.491481338843133355E-15, 1.224646799147353207E-16, -1.000000000000000000 ) ) ;
#107 = APPROVAL_STATUS ( 'not_yet_approved' ) ;
#108 = FACE_OUTER_BOUND ( 'NONE', #85, .T. ) ;
#109 = AXIS2_PLACEMENT_3D ( 'NONE', #132, #169, #14 ) ;
#110 = LOCAL_TIME ( 10, 11, 46.00000000000000000, #177 ) ;
#111 = CYLINDRICAL_SURFACE ( 'NONE', #82, 0.7499999999999987788 ) ;
#112 = AXIS2_PLACEMENT_3D ( 'NONE', #178, #53, #193 ) ;
#113 = ADVANCED_FACE ( 'NONE', ( #23 ), #7, .T. ) ;
#114 = ORIENTED_EDGE ( 'NONE', *, *, #40, .T. ) ;
#115 = CARTESIAN_POINT ( 'NONE',  ( 3.567074127250069701E-14, 0.7499999999999963363, 10.21650635094610848 ) ) ;
#116 = EDGE_CURVE ( 'NONE', #84, #84, #69, .T. ) ;
#117 = PERSON_AND_ORGANIZATION ( #179, #48 ) ;
#118 = FACE_OUTER_BOUND ( 'NONE', #119, .T. ) ;
#119 = EDGE_LOOP ( 'NONE', ( #66 ) ) ;
#120 = APPROVAL_ROLE ( '' ) ;
#121 = CC_DESIGN_DATE_AND_TIME_ASSIGNMENT ( #16, #221, ( #205 ) ) ;
#122 = CARTESIAN_POINT ( 'NONE',  ( 1.259879806782285975E-15, -4.419063494687154875E-17, 0.3608439182435195791 ) ) ;
#123 = CALENDAR_DATE ( 2021, 8, 10 ) ;
#124 = APPROVAL_ROLE ( '' ) ;
#125 = AXIS2_PLACEMENT_3D ( 'NONE', #122, #106, #21 ) ;
#126 = PLANE ( 'NONE',  #64 ) ;
#127 = FACE_BOUND ( 'NONE', #218, .T. ) ;
#128 = LOCAL_TIME ( 10, 11, 46.00000000000000000, #105 ) ;
#129 = CONICAL_SURFACE ( 'NONE', #162, 0.7499999999999976685, 0.5235987755982934866 ) ;
#130 = ADVANCED_FACE ( 'NONE', ( #212 ), #126, .F. ) ;
#131 = DIRECTION ( 'NONE',  ( -3.491481338843133355E-15, 1.224646799147353207E-16, -1.000000000000000000 ) ) ;
#132 = CARTESIAN_POINT ( 'NONE',  ( 1.047444401652940007E-13, -3.673940397442059178E-15, 30.00000000000000000 ) ) ;
#133 = ADVANCED_FACE ( 'NONE', ( #203, #160 ), #129, .T. ) ;
#134 = PERSON_AND_ORGANIZATION_ROLE ( 'creator' ) ;
#135 = PRODUCT_RELATED_PRODUCT_CATEGORY ( 'detail', '', ( #47 ) ) ;
#136 = UNCERTAINTY_MEASURE_WITH_UNIT (LENGTH_MEASURE( 1.000000000000000082E-05 ), #149, 'distance_accuracy_value', 'NONE');
#137 = PERSON_AND_ORGANIZATION ( #179, #48 ) ;
#138 = DIRECTION ( 'NONE',  ( -3.491481338843133355E-15, 1.224646799147353207E-16, -1.000000000000000000 ) ) ;
#139 = DATE_TIME_ROLE ( 'creation_date' ) ;
#140 = DIRECTION ( 'NONE',  ( -3.081487911019583496E-31, -1.000000000000000000, -8.673617379884052728E-17 ) ) ;
#141 = CARTESIAN_POINT ( 'NONE',  ( 3.567074127250069701E-14, -1.251161180115475812E-15, 10.21650635094610848 ) ) ;
#142 = CC_DESIGN_PERSON_AND_ORGANIZATION_ASSIGNMENT ( #18, #54, ( #47 ) ) ;
#143 = APPROVAL_STATUS ( 'not_yet_approved' ) ;
#144 = AXIS2_PLACEMENT_3D ( 'NONE', #151, #199, #155 ) ;
#145 = DIRECTION ( 'NONE',  ( 0.0000000000000000000, 1.000000000000000000, 0.0000000000000000000 ) ) ;
#146 = AXIS2_PLACEMENT_3D ( 'NONE', #55, #138, #24 ) ;
#147 = ORIENTED_EDGE ( 'NONE', *, *, #181, .F. ) ;
#148 = FACE_OUTER_BOUND ( 'NONE', #100, .T. ) ;
#149 =( LENGTH_UNIT ( ) NAMED_UNIT ( * ) SI_UNIT ( .MILLI., .METRE. ) );
#150 = ORIENTED_EDGE ( 'NONE', *, *, #116, .T. ) ;
#151 = CARTESIAN_POINT ( 'NONE',  ( 0.0000000000000000000, 0.0000000000000000000, 0.0000000000000000000 ) ) ;
#152 = AXIS2_PLACEMENT_3D ( 'NONE', #28, #195, #145 ) ;
#153 = ADVANCED_FACE ( 'NONE', ( #211, #127 ), #165, .T. ) ;
#154 = DIRECTION ( 'NONE',  ( 4.275831445896959482E-31, 1.000000000000000000, 1.224646799147353207E-16 ) ) ;
#155 = DIRECTION ( 'NONE',  ( 1.000000000000000000, 0.0000000000000000000, 0.0000000000000000000 ) ) ;
#156 = PERSON_AND_ORGANIZATION ( #179, #48 ) ;
#157 = DIRECTION ( 'NONE',  ( -3.491481338843133355E-15, 1.224646799147353207E-16, -1.000000000000000000 ) ) ;
#158 = PRODUCT_DEFINITION_FORMATION_WITH_SPECIFIED_SOURCE ( 'ANY', '', #47, .NOT_KNOWN. ) ;
#159 = PERSON_AND_ORGANIZATION_ROLE ( 'classification_officer' ) ;
#160 = FACE_OUTER_BOUND ( 'NONE', #15, .T. ) ;
#161 = DIRECTION ( 'NONE',  ( -4.275831445896958607E-31, -1.000000000000000000, -1.224646799147353207E-16 ) ) ;
#162 = AXIS2_PLACEMENT_3D ( 'NONE', #141, #207, #189 ) ;
#163 = APPROVAL ( #107, 'UNSPECIFIED' ) ;
#164 = DIRECTION ( 'NONE',  ( -3.491481338843133355E-15, 1.224646799147353207E-16, -1.000000000000000000 ) ) ;
#165 = CONICAL_SURFACE ( 'NONE', #112, 0.5500000000000000444, 0.7853981633974512766 ) ;
#166 = VERTEX_POINT ( 'NONE', #81 ) ;
#167 = APPROVAL ( #222, 'UNSPECIFIED' ) ;
#168 = ORIENTED_EDGE ( 'NONE', *, *, #181, .T. ) ;
#169 = DIRECTION ( 'NONE',  ( -3.491481338843133355E-15, 1.224646799147353207E-16, -1.000000000000000000 ) ) ;
#170 = CIRCLE ( 'NONE', #146, 0.7500000000000000000 ) ;
#171 = EDGE_LOOP ( 'NONE', ( #114 ) ) ;
#172 = CALENDAR_DATE ( 2021, 8, 10 ) ;
#173 = ADVANCED_FACE ( 'NONE', ( #108, #43 ), #111, .T. ) ;
#174 = APPROVAL_ROLE ( '' ) ;
#175 = APPROVAL_PERSON_ORGANIZATION ( #20, #163, #120 ) ;
#176 = FACE_OUTER_BOUND ( 'NONE', #198, .T. ) ;
#177 = COORDINATED_UNIVERSAL_TIME_OFFSET ( 1, 0, .AHEAD. ) ;
#178 = CARTESIAN_POINT ( 'NONE',  ( 1.047444401652940007E-13, -3.673940397442059178E-15, 30.00000000000000000 ) ) ;
#179 = PERSON ( 'UNSPECIFIED', 'UNSPECIFIED', 'UNSPECIFIED', ('UNSPECIFIED'), ('UNSPECIFIED'), ('UNSPECIFIED') ) ;
#180 = APPROVAL ( #143, 'UNSPECIFIED' ) ;
#181 = EDGE_CURVE ( 'NONE', #166, #166, #204, .T. ) ;
#182 = AXIS2_PLACEMENT_3D ( 'NONE', #19, #51, #36 ) ;
#183 = CARTESIAN_POINT ( 'NONE',  ( 3.491481338843133355E-14, 0.6249999999999983347, 10.00000000000000000 ) ) ;
#184 = ORIENTED_EDGE ( 'NONE', *, *, #190, .F. ) ;
#185 = CALENDAR_DATE ( 2021, 8, 10 ) ;
#186 = AXIS2_PLACEMENT_3D ( 'NONE', #95, #78, #140 ) ;
#187 = CALENDAR_DATE ( 2021, 8, 10 ) ;
#188 = COORDINATED_UNIVERSAL_TIME_OFFSET ( 1, 0, .AHEAD. ) ;
#189 = DIRECTION ( 'NONE',  ( 0.0000000000000000000, -1.000000000000000000, 0.0000000000000000000 ) ) ;
#190 = EDGE_CURVE ( 'NONE', #10, #10, #41, .T. ) ;
#191 = LOCAL_TIME ( 10, 11, 46.00000000000000000, #206 ) ;
#192 = DIRECTION ( 'NONE',  ( -3.491481338843133355E-15, 1.224646799147353207E-16, -1.000000000000000000 ) ) ;
#193 = DIRECTION ( 'NONE',  ( 0.0000000000000000000, 1.000000000000000000, 0.0000000000000000000 ) ) ;
#194 = CLOSED_SHELL ( 'NONE', ( #113, #79, #98 ) ) ;
#195 = DIRECTION ( 'NONE',  ( -3.491481338843133355E-15, 1.224646799147353207E-16, -1.000000000000000000 ) ) ;
#196 = DIRECTION ( 'NONE',  ( 4.275831445896958607E-31, 1.000000000000000000, 1.224646799147353207E-16 ) ) ;
#197 = CC_DESIGN_APPROVAL ( #163, ( #34 ) ) ;
#198 = EDGE_LOOP ( 'NONE', ( #45 ) ) ;
#199 = DIRECTION ( 'NONE',  ( 0.0000000000000000000, 0.0000000000000000000, 1.000000000000000000 ) ) ;
#200 = EDGE_LOOP ( 'NONE', ( #220 ) ) ;
#201 = DIRECTION ( 'NONE',  ( -4.275831445896958607E-31, -1.000000000000000000, -1.224646799147353207E-16 ) ) ;
#202 = APPLICATION_PROTOCOL_DEFINITION ( 'international standard', 'config_control_design', 1994, #32 ) ;
#203 = FACE_BOUND ( 'NONE', #200, .T. ) ;
#204 = CIRCLE ( 'NONE', #109, 0.5500000000000000444 ) ;
#205 = SECURITY_CLASSIFICATION ( '', '', #75 ) ;
#206 = COORDINATED_UNIVERSAL_TIME_OFFSET ( 1, 0, .AHEAD. ) ;
#207 = DIRECTION ( 'NONE',  ( 3.491481338843133355E-15, -1.224646799147353207E-16, 1.000000000000000000 ) ) ;
#208 = PLANE ( 'NONE',  #92 ) ;
#209 = ADVANCED_BREP_SHAPE_REPRESENTATION ( '55764', ( #56, #61, #144 ), #62 ) ;
#210 = CALENDAR_DATE ( 2021, 8, 10 ) ;
#211 = FACE_OUTER_BOUND ( 'NONE', #87, .T. ) ;
#212 = FACE_OUTER_BOUND ( 'NONE', #49, .T. ) ;
#213 = ADVANCED_FACE ( 'NONE', ( #148 ), #44, .F. ) ;
#214 = DATE_AND_TIME ( #210, #110 ) ;
#215 = VERTEX_POINT ( 'NONE', #219 ) ;
#216 = CC_DESIGN_DATE_AND_TIME_ASSIGNMENT ( #50, #139, ( #34 ) ) ;
#217 = LOCAL_TIME ( 10, 11, 46.00000000000000000, #104 ) ;
#218 = EDGE_LOOP ( 'NONE', ( #168 ) ) ;
#219 = CARTESIAN_POINT ( 'NONE',  ( 1.259879806782286172E-15, 0.6249999999999987788, 0.3608439182435196346 ) ) ;
#220 = ORIENTED_EDGE ( 'NONE', *, *, #99, .F. ) ;
#221 = DATE_TIME_ROLE ( 'classification_date' ) ;
#222 = APPROVAL_STATUS ( 'not_yet_approved' ) ;
#223 = CYLINDRICAL_SURFACE ( 'NONE', #58, 0.6249999999999992228 ) ;
ENDSEC;
END-ISO-10303-21;
