ISO-10303-21;
HEADER;
FILE_DESCRIPTION (( 'STEP AP203' ),
    '1' );
FILE_NAME ('55762.step',
    '2021-10-08T08:11:45',
    ( '' ),
    ( '' ),
    'SwSTEP 2.0',
    'SolidWorks 2019',
    '' );
FILE_SCHEMA (( 'CONFIG_CONTROL_DESIGN' ));
ENDSEC;

DATA;
#1 = CALENDAR_DATE ( 2021, 8, 10 ) ;
#2 = AXIS2_PLACEMENT_3D ( 'NONE', #112, #77, #108 ) ;
#3 = PERSON_AND_ORGANIZATION_ROLE ( 'creator' ) ;
#4 = DIRECTION ( 'NONE',  ( 3.491481338843133355E-15, -1.224646799147353207E-16, 1.000000000000000000 ) ) ;
#5 = CC_DESIGN_DATE_AND_TIME_ASSIGNMENT ( #85, #25, ( #211 ) ) ;
#6 = DIRECTION ( 'NONE',  ( 3.209883240645399365E-31, 1.000000000000000000, 9.035018104045887951E-17 ) ) ;
#7 = AXIS2_PLACEMENT_3D ( 'NONE', #114, #13, #12 ) ;
#8 =( NAMED_UNIT ( * ) SI_UNIT ( $, .STERADIAN. ) SOLID_ANGLE_UNIT ( ) );
#9 = CIRCLE ( 'NONE', #39, 0.6000000000000009770 ) ;
#10 = VERTEX_POINT ( 'NONE', #80 ) ;
#11 = ORIENTED_EDGE ( 'NONE', *, *, #213, .T. ) ;
#12 = DIRECTION ( 'NONE',  ( 1.000000000000000000, 0.0000000000000000000, 0.0000000000000000000 ) ) ;
#13 = DIRECTION ( 'NONE',  ( 0.0000000000000000000, 0.0000000000000000000, 1.000000000000000000 ) ) ;
#14 = DATE_AND_TIME ( #1, #192 ) ;
#15 = CC_DESIGN_PERSON_AND_ORGANIZATION_ASSIGNMENT ( #222, #87, ( #126 ) ) ;
#16 = DIRECTION ( 'NONE',  ( 0.0000000000000000000, 1.000000000000000000, 0.0000000000000000000 ) ) ;
#17 = DIRECTION ( 'NONE',  ( -3.209883240645399365E-31, -1.000000000000000000, -9.035018104045887951E-17 ) ) ;
#18 = DIRECTION ( 'NONE',  ( 4.275831445896958607E-31, 1.000000000000000000, 1.224646799147353207E-16 ) ) ;
#19 = DATE_AND_TIME ( #189, #170 ) ;
#20 = CARTESIAN_POINT ( 'NONE',  ( 3.491481338843133986E-14, -2.079430758780911508E-31, 10.00000000000000178 ) ) ;
#21 = DIRECTION ( 'NONE',  ( 0.0000000000000000000, 1.000000000000000000, 0.0000000000000000000 ) ) ;
#22 = PERSON_AND_ORGANIZATION ( #164, #188 ) ;
#23 = AXIS2_PLACEMENT_3D ( 'NONE', #223, #4, #17 ) ;
#24 = APPLICATION_CONTEXT ( 'configuration controlled 3d designs of mechanical parts and assemblies' ) ;
#25 = DATE_TIME_ROLE ( 'classification_date' ) ;
#26 = ADVANCED_FACE ( 'NONE', ( #99 ), #88, .F. ) ;
#27 = VERTEX_POINT ( 'NONE', #182 ) ;
#28 = ORIENTED_EDGE ( 'NONE', *, *, #30, .F. ) ;
#29 = DATE_AND_TIME ( #219, #49 ) ;
#30 = EDGE_CURVE ( 'NONE', #27, #27, #117, .T. ) ;
#31 = AXIS2_PLACEMENT_3D ( 'NONE', #102, #52, #21 ) ;
#32 = CC_DESIGN_APPROVAL ( #133, ( #58 ) ) ;
#33 = PERSON_AND_ORGANIZATION ( #164, #188 ) ;
#34 = DIRECTION ( 'NONE',  ( -3.491481338843133355E-15, 1.224646799147353207E-16, -1.000000000000000000 ) ) ;
#35 = FACE_OUTER_BOUND ( 'NONE', #43, .T. ) ;
#36 = PERSON_AND_ORGANIZATION_ROLE ( 'design_supplier' ) ;
#37 = ADVANCED_FACE ( 'NONE', ( #120, #157 ), #209, .T. ) ;
#38 = FACE_OUTER_BOUND ( 'NONE', #199, .T. ) ;
#39 = AXIS2_PLACEMENT_3D ( 'NONE', #53, #86, #16 ) ;
#40 =( LENGTH_UNIT ( ) NAMED_UNIT ( * ) SI_UNIT ( .MILLI., .METRE. ) );
#41 = LOCAL_TIME ( 10, 11, 45.00000000000000000, #153 ) ;
#42 = DIRECTION ( 'NONE',  ( 3.491481338843133355E-15, -1.224646799147353207E-16, 1.000000000000000000 ) ) ;
#43 = EDGE_LOOP ( 'NONE', ( #61 ) ) ;
#44 = MANIFOLD_SOLID_BREP ( 'Corps-Déplacer/Copier1[2]', #128 ) ;
#45 = APPROVAL_ROLE ( '' ) ;
#46 = ADVANCED_FACE ( 'NONE', ( #155 ), #214, .T. ) ;
#47 = APPROVAL_ROLE ( '' ) ;
#48 = CYLINDRICAL_SURFACE ( 'NONE', #55, 0.7499999999999987788 ) ;
#49 = LOCAL_TIME ( 10, 11, 45.00000000000000000, #184 ) ;
#50 = CARTESIAN_POINT ( 'NONE',  ( 0.0000000000000000000, 0.0000000000000000000, 0.0000000000000000000 ) ) ;
#51 = DESIGN_CONTEXT ( 'detailed design', #24, 'design' ) ;
#52 = DIRECTION ( 'NONE',  ( -3.491481338843133355E-15, 1.224646799147353207E-16, -1.000000000000000000 ) ) ;
#53 = CARTESIAN_POINT ( 'NONE',  ( 3.491481338843133986E-14, -1.224646799147353454E-15, 10.00000000000000178 ) ) ;
#54 = CARTESIAN_POINT ( 'NONE',  ( 1.209484614510994631E-15, -4.242300954899669075E-17, 0.3464101615137787915 ) ) ;
#55 = AXIS2_PLACEMENT_3D ( 'NONE', #90, #160, #210 ) ;
#56 = CIRCLE ( 'NONE', #146, 0.6000000000000009770 ) ;
#57 = CC_DESIGN_PERSON_AND_ORGANIZATION_ASSIGNMENT ( #110, #191, ( #211 ) ) ;
#58 = PRODUCT_DEFINITION_FORMATION_WITH_SPECIFIED_SOURCE ( 'ANY', '', #126, .NOT_KNOWN. ) ;
#59 = EDGE_LOOP ( 'NONE', ( #69 ) ) ;
#60 = SHAPE_DEFINITION_REPRESENTATION ( #107, #185 ) ;
#61 = ORIENTED_EDGE ( 'NONE', *, *, #213, .F. ) ;
#62 = CARTESIAN_POINT ( 'NONE',  ( 3.582192684931457223E-14, -1.256464056309100442E-15, 10.25980762113533196 ) ) ;
#63 = ORIENTED_EDGE ( 'NONE', *, *, #93, .F. ) ;
#64 = AXIS2_PLACEMENT_3D ( 'NONE', #72, #119, #173 ) ;
#65 = CC_DESIGN_APPROVAL ( #218, ( #195 ) ) ;
#66 = PERSON_AND_ORGANIZATION ( #164, #188 ) ;
#67 = ORIENTED_EDGE ( 'NONE', *, *, #144, .T. ) ;
#68 = PERSON_AND_ORGANIZATION_ROLE ( 'creator' ) ;
#69 = ORIENTED_EDGE ( 'NONE', *, *, #221, .T. ) ;
#70 = APPROVAL_STATUS ( 'not_yet_approved' ) ;
#71 = PLANE ( 'NONE',  #204 ) ;
#72 = CARTESIAN_POINT ( 'NONE',  ( 1.040461438975253740E-13, -3.649447461459112464E-15, 29.80000000000000071 ) ) ;
#73 = COORDINATED_UNIVERSAL_TIME_OFFSET ( 1, 0, .AHEAD. ) ;
#74 = SECURITY_CLASSIFICATION_LEVEL ( 'unclassified' ) ;
#75 = DIRECTION ( 'NONE',  ( 0.0000000000000000000, 1.000000000000000000, 0.0000000000000000000 ) ) ;
#76 = CIRCLE ( 'NONE', #2, 0.5500000000000000444 ) ;
#77 = DIRECTION ( 'NONE',  ( -3.491481338843133355E-15, 1.224646799147353207E-16, -1.000000000000000000 ) ) ;
#78 = EDGE_LOOP ( 'NONE', ( #81 ) ) ;
#79 = AXIS2_PLACEMENT_3D ( 'NONE', #202, #140, #75 ) ;
#80 = CARTESIAN_POINT ( 'NONE',  ( 3.491481338843133986E-14, 0.5999999999999998668, 10.00000000000000178 ) ) ;
#81 = ORIENTED_EDGE ( 'NONE', *, *, #93, .T. ) ;
#82 = ORIENTED_EDGE ( 'NONE', *, *, #125, .T. ) ;
#83 = APPROVAL_PERSON_ORGANIZATION ( #132, #133, #45 ) ;
#84 = APPROVAL_DATE_TIME ( #29, #218 ) ;
#85 = DATE_AND_TIME ( #103, #142 ) ;
#86 = DIRECTION ( 'NONE',  ( -3.491481338843133355E-15, 1.224646799147353207E-16, -1.000000000000000000 ) ) ;
#87 = PERSON_AND_ORGANIZATION_ROLE ( 'design_owner' ) ;
#88 = PLANE ( 'NONE',  #136 ) ;
#89 = APPROVAL_DATE_TIME ( #14, #133 ) ;
#90 = CARTESIAN_POINT ( 'NONE',  ( 0.0000000000000000000, 0.0000000000000000000, 0.0000000000000000000 ) ) ;
#91 = DIRECTION ( 'NONE',  ( -3.491481338843133355E-15, 1.224646799147353207E-16, -1.000000000000000000 ) ) ;
#92 = AXIS2_PLACEMENT_3D ( 'NONE', #50, #91, #163 ) ;
#93 = EDGE_CURVE ( 'NONE', #168, #168, #187, .T. ) ;
#94 = VERTEX_POINT ( 'NONE', #143 ) ;
#95 = CARTESIAN_POINT ( 'NONE',  ( 3.582192684931457223E-14, 0.7499999999999963363, 10.25980762113533196 ) ) ;
#96 = PERSON_AND_ORGANIZATION ( #164, #188 ) ;
#97 = CC_DESIGN_PERSON_AND_ORGANIZATION_ASSIGNMENT ( #22, #36, ( #58 ) ) ;
#98 = APPLICATION_PROTOCOL_DEFINITION ( 'international standard', 'config_control_design', 1994, #24 ) ;
#99 = FACE_OUTER_BOUND ( 'NONE', #180, .T. ) ;
#100 =( GEOMETRIC_REPRESENTATION_CONTEXT ( 3 ) GLOBAL_UNCERTAINTY_ASSIGNED_CONTEXT ( ( #137 ) ) GLOBAL_UNIT_ASSIGNED_CONTEXT ( ( #40, #215, #8 ) ) REPRESENTATION_CONTEXT ( 'NONE', 'WORKASPACE' ) );
#101 = DATE_TIME_ROLE ( 'creation_date' ) ;
#102 = CARTESIAN_POINT ( 'NONE',  ( 1.047444401652940007E-13, -3.673940397442059178E-15, 30.00000000000000000 ) ) ;
#103 = CALENDAR_DATE ( 2021, 8, 10 ) ;
#104 = APPROVAL ( #70, 'UNSPECIFIED' ) ;
#105 = FACE_OUTER_BOUND ( 'NONE', #151, .T. ) ;
#106 = ADVANCED_FACE ( 'NONE', ( #35 ), #71, .T. ) ;
#107 = PRODUCT_DEFINITION_SHAPE ( 'NONE', 'NONE',  #195 ) ;
#108 = DIRECTION ( 'NONE',  ( 0.0000000000000000000, 1.000000000000000000, 0.0000000000000000000 ) ) ;
#109 = DIRECTION ( 'NONE',  ( 0.0000000000000000000, 1.000000000000000000, 0.0000000000000000000 ) ) ;
#110 = PERSON_AND_ORGANIZATION ( #164, #188 ) ;
#111 = DIRECTION ( 'NONE',  ( 0.0000000000000000000, -1.000000000000000000, 0.0000000000000000000 ) ) ;
#112 = CARTESIAN_POINT ( 'NONE',  ( 1.047444401652940007E-13, -3.673940397442059178E-15, 30.00000000000000000 ) ) ;
#113 = ORIENTED_EDGE ( 'NONE', *, *, #221, .F. ) ;
#114 = CARTESIAN_POINT ( 'NONE',  ( 0.0000000000000000000, 0.0000000000000000000, 0.0000000000000000000 ) ) ;
#115 = DIRECTION ( 'NONE',  ( -4.275831445896958607E-31, -1.000000000000000000, -1.224646799147353207E-16 ) ) ;
#116 = DATE_AND_TIME ( #220, #41 ) ;
#117 = CIRCLE ( 'NONE', #64, 0.7500000000000000000 ) ;
#118 = AXIS2_PLACEMENT_3D ( 'NONE', #62, #42, #111 ) ;
#119 = DIRECTION ( 'NONE',  ( -3.491481338843133355E-15, 1.224646799147353207E-16, -1.000000000000000000 ) ) ;
#120 = FACE_OUTER_BOUND ( 'NONE', #149, .T. ) ;
#121 = APPROVAL_ROLE ( '' ) ;
#122 = CC_DESIGN_PERSON_AND_ORGANIZATION_ASSIGNMENT ( #33, #3, ( #58 ) ) ;
#123 = DIRECTION ( 'NONE',  ( -3.491481338843133355E-15, 1.224646799147353207E-16, -1.000000000000000000 ) ) ;
#124 = DIRECTION ( 'NONE',  ( -4.275831445896958607E-31, -1.000000000000000000, -1.224646799147353207E-16 ) ) ;
#125 = EDGE_CURVE ( 'NONE', #94, #94, #9, .T. ) ;
#126 = PRODUCT ( '55762', '55762', '', ( #171 ) ) ;
#127 = CARTESIAN_POINT ( 'NONE',  ( 1.209484614510994828E-15, 0.5999999999999988676, 0.3464101615137788470 ) ) ;
#128 = CLOSED_SHELL ( 'NONE', ( #46, #196, #106 ) ) ;
#129 = DIRECTION ( 'NONE',  ( -3.491481338843133355E-15, 1.224646799147353207E-16, -1.000000000000000000 ) ) ;
#130 = ADVANCED_FACE ( 'NONE', ( #193, #38 ), #48, .T. ) ;
#131 = EDGE_LOOP ( 'NONE', ( #67 ) ) ;
#132 = PERSON_AND_ORGANIZATION ( #164, #188 ) ;
#133 = APPROVAL ( #200, 'UNSPECIFIED' ) ;
#134 = EDGE_LOOP ( 'NONE', ( #82 ) ) ;
#135 = COORDINATED_UNIVERSAL_TIME_OFFSET ( 1, 0, .AHEAD. ) ;
#136 = AXIS2_PLACEMENT_3D ( 'NONE', #138, #34, #18 ) ;
#137 = UNCERTAINTY_MEASURE_WITH_UNIT (LENGTH_MEASURE( 1.000000000000000082E-05 ), #40, 'distance_accuracy_value', 'NONE');
#138 = CARTESIAN_POINT ( 'NONE',  ( 1.047444401652940007E-13, 4.124339402320052999E-33, 30.00000000000000000 ) ) ;
#139 = CC_DESIGN_DATE_AND_TIME_ASSIGNMENT ( #116, #101, ( #195 ) ) ;
#140 = DIRECTION ( 'NONE',  ( -3.491481338843133355E-15, 1.224646799147353207E-16, -1.000000000000000000 ) ) ;
#141 = FACE_BOUND ( 'NONE', #169, .T. ) ;
#142 = LOCAL_TIME ( 10, 11, 45.00000000000000000, #73 ) ;
#143 = CARTESIAN_POINT ( 'NONE',  ( 3.491481338843133986E-14, 0.5999999999999998668, 10.00000000000000178 ) ) ;
#144 = EDGE_CURVE ( 'NONE', #212, #212, #158, .T. ) ;
#145 = ORIENTED_EDGE ( 'NONE', *, *, #144, .F. ) ;
#146 = AXIS2_PLACEMENT_3D ( 'NONE', #178, #129, #109 ) ;
#147 = CARTESIAN_POINT ( 'NONE',  ( 1.047444401652940007E-13, 0.5499999999999963807, 30.00000000000000000 ) ) ;
#148 = ORIENTED_EDGE ( 'NONE', *, *, #125, .F. ) ;
#149 = EDGE_LOOP ( 'NONE', ( #28 ) ) ;
#150 = APPROVAL_STATUS ( 'not_yet_approved' ) ;
#151 = EDGE_LOOP ( 'NONE', ( #11 ) ) ;
#152 = APPROVAL_PERSON_ORGANIZATION ( #201, #218, #47 ) ;
#153 = COORDINATED_UNIVERSAL_TIME_OFFSET ( 1, 0, .AHEAD. ) ;
#154 = APPROVAL_DATE_TIME ( #19, #104 ) ;
#155 = FACE_OUTER_BOUND ( 'NONE', #131, .T. ) ;
#156 = APPLICATION_CONTEXT ( 'configuration controlled 3d designs of mechanical parts and assemblies' ) ;
#157 = FACE_BOUND ( 'NONE', #59, .T. ) ;
#158 = CIRCLE ( 'NONE', #179, 0.5999999999999988676 ) ;
#159 = AXIS2_PLACEMENT_3D ( 'NONE', #206, #194, #124 ) ;
#160 = DIRECTION ( 'NONE',  ( -3.491481338843133355E-15, 1.224646799147353207E-16, -1.000000000000000000 ) ) ;
#161 = CC_DESIGN_PERSON_AND_ORGANIZATION_ASSIGNMENT ( #66, #68, ( #195 ) ) ;
#162 = FACE_OUTER_BOUND ( 'NONE', #134, .T. ) ;
#163 = DIRECTION ( 'NONE',  ( 4.275831445896958607E-31, 1.000000000000000000, 1.224646799147352961E-16 ) ) ;
#164 = PERSON ( 'UNSPECIFIED', 'UNSPECIFIED', 'UNSPECIFIED', ('UNSPECIFIED'), ('UNSPECIFIED'), ('UNSPECIFIED') ) ;
#165 = CLOSED_SHELL ( 'NONE', ( #176, #203, #130, #37, #26 ) ) ;
#166 = VERTEX_POINT ( 'NONE', #147 ) ;
#167 = PRODUCT_RELATED_PRODUCT_CATEGORY ( 'detail', '', ( #126 ) ) ;
#168 = VERTEX_POINT ( 'NONE', #95 ) ;
#169 = EDGE_LOOP ( 'NONE', ( #148 ) ) ;
#170 = LOCAL_TIME ( 10, 11, 45.00000000000000000, #135 ) ;
#171 = MECHANICAL_CONTEXT ( 'NONE', #156, 'mechanical' ) ;
#172 = CC_DESIGN_SECURITY_CLASSIFICATION ( #211, ( #58 ) ) ;
#173 = DIRECTION ( 'NONE',  ( 0.0000000000000000000, 1.000000000000000000, 0.0000000000000000000 ) ) ;
#174 = PLANE ( 'NONE',  #159 ) ;
#175 = CONICAL_SURFACE ( 'NONE', #118, 0.7499999999999976685, 0.5235987755982921543 ) ;
#176 = ADVANCED_FACE ( 'NONE', ( #162 ), #174, .F. ) ;
#177 = COORDINATED_UNIVERSAL_TIME_OFFSET ( 1, 0, .AHEAD. ) ;
#178 = CARTESIAN_POINT ( 'NONE',  ( 3.491481338843133986E-14, -1.224646799147353454E-15, 10.00000000000000178 ) ) ;
#179 = AXIS2_PLACEMENT_3D ( 'NONE', #54, #123, #6 ) ;
#180 = EDGE_LOOP ( 'NONE', ( #113 ) ) ;
#181 = APPROVAL_PERSON_ORGANIZATION ( #96, #104, #121 ) ;
#182 = CARTESIAN_POINT ( 'NONE',  ( 1.040461438975253740E-13, 0.7499999999999963363, 29.80000000000000071 ) ) ;
#183 = EDGE_LOOP ( 'NONE', ( #63 ) ) ;
#184 = COORDINATED_UNIVERSAL_TIME_OFFSET ( 1, 0, .AHEAD. ) ;
#185 = ADVANCED_BREP_SHAPE_REPRESENTATION ( '55762', ( #198, #44, #7 ), #100 ) ;
#186 = APPLICATION_PROTOCOL_DEFINITION ( 'international standard', 'config_control_design', 1994, #156 ) ;
#187 = CIRCLE ( 'NONE', #79, 0.7499999999999976685 ) ;
#188 = ORGANIZATION ( 'UNSPECIFIED', 'UNSPECIFIED', '' ) ;
#189 = CALENDAR_DATE ( 2021, 8, 10 ) ;
#190 = FACE_OUTER_BOUND ( 'NONE', #217, .T. ) ;
#191 = PERSON_AND_ORGANIZATION_ROLE ( 'classification_officer' ) ;
#192 = LOCAL_TIME ( 10, 11, 45.00000000000000000, #177 ) ;
#193 = FACE_OUTER_BOUND ( 'NONE', #183, .T. ) ;
#194 = DIRECTION ( 'NONE',  ( 3.491481338843133355E-15, -1.224646799147353207E-16, 1.000000000000000000 ) ) ;
#195 = PRODUCT_DEFINITION ( 'UNKNOWN', '', #58, #51 ) ;
#196 = ADVANCED_FACE ( 'NONE', ( #190, #105 ), #205, .T. ) ;
#197 = CC_DESIGN_APPROVAL ( #104, ( #211 ) ) ;
#198 = MANIFOLD_SOLID_BREP ( 'Corps-Déplacer/Copier1[1]', #165 ) ;
#199 = EDGE_LOOP ( 'NONE', ( #216 ) ) ;
#200 = APPROVAL_STATUS ( 'not_yet_approved' ) ;
#201 = PERSON_AND_ORGANIZATION ( #164, #188 ) ;
#202 = CARTESIAN_POINT ( 'NONE',  ( 3.582192684931457223E-14, -1.256464056309100442E-15, 10.25980762113533196 ) ) ;
#203 = ADVANCED_FACE ( 'NONE', ( #141, #208 ), #175, .T. ) ;
#204 = AXIS2_PLACEMENT_3D ( 'NONE', #20, #207, #115 ) ;
#205 = CYLINDRICAL_SURFACE ( 'NONE', #92, 0.5999999999999999778 ) ;
#206 = CARTESIAN_POINT ( 'NONE',  ( 3.491481338843133986E-14, -2.079430758780911508E-31, 10.00000000000000178 ) ) ;
#207 = DIRECTION ( 'NONE',  ( 3.491481338843133355E-15, -1.224646799147353207E-16, 1.000000000000000000 ) ) ;
#208 = FACE_OUTER_BOUND ( 'NONE', #78, .T. ) ;
#209 = CONICAL_SURFACE ( 'NONE', #31, 0.5500000000000000444, 0.7853981633974512766 ) ;
#210 = DIRECTION ( 'NONE',  ( 4.275831445896959482E-31, 1.000000000000000000, 1.224646799147353207E-16 ) ) ;
#211 = SECURITY_CLASSIFICATION ( '', '', #74 ) ;
#212 = VERTEX_POINT ( 'NONE', #127 ) ;
#213 = EDGE_CURVE ( 'NONE', #10, #10, #56, .T. ) ;
#214 = CONICAL_SURFACE ( 'NONE', #23, 0.5999999999999988676, 1.047197551196592746 ) ;
#215 =( NAMED_UNIT ( * ) PLANE_ANGLE_UNIT ( ) SI_UNIT ( $, .RADIAN. ) );
#216 = ORIENTED_EDGE ( 'NONE', *, *, #30, .T. ) ;
#217 = EDGE_LOOP ( 'NONE', ( #145 ) ) ;
#218 = APPROVAL ( #150, 'UNSPECIFIED' ) ;
#219 = CALENDAR_DATE ( 2021, 8, 10 ) ;
#220 = CALENDAR_DATE ( 2021, 8, 10 ) ;
#221 = EDGE_CURVE ( 'NONE', #166, #166, #76, .T. ) ;
#222 = PERSON_AND_ORGANIZATION ( #164, #188 ) ;
#223 = CARTESIAN_POINT ( 'NONE',  ( 1.209484614510994631E-15, -4.242300954899669075E-17, 0.3464101615137787915 ) ) ;
ENDSEC;
END-ISO-10303-21;
