ISO-10303-21;
HEADER;
FILE_DESCRIPTION (( 'STEP AP203' ),
    '1' );
FILE_NAME ('55761.step',
    '2021-10-08T08:11:43',
    ( '' ),
    ( '' ),
    'SwSTEP 2.0',
    'SolidWorks 2019',
    '' );
FILE_SCHEMA (( 'CONFIG_CONTROL_DESIGN' ));
ENDSEC;

DATA;
#1 = DIRECTION ( 'NONE',  ( -4.275831445896958607E-31, -1.000000000000000000, -1.224646799147353207E-16 ) ) ;
#2 = AXIS2_PLACEMENT_3D ( 'NONE', #112, #99, #132 ) ;
#3 = DIRECTION ( 'NONE',  ( -3.491481338843133355E-15, 1.224646799147353207E-16, -1.000000000000000000 ) ) ;
#4 = ADVANCED_FACE ( 'NONE', ( #14 ), #121, .T. ) ;
#5 = CC_DESIGN_APPROVAL ( #101, ( #200 ) ) ;
#6 = DATE_AND_TIME ( #198, #139 ) ;
#7 = EDGE_LOOP ( 'NONE', ( #13 ) ) ;
#8 = APPROVAL_ROLE ( '' ) ;
#9 = ORIENTED_EDGE ( 'NONE', *, *, #118, .T. ) ;
#10 = MANIFOLD_SOLID_BREP ( 'Corps-Déplacer/Copier1[2]', #23 ) ;
#11 = CC_DESIGN_SECURITY_CLASSIFICATION ( #35, ( #200 ) ) ;
#12 = PERSON_AND_ORGANIZATION ( #18, #207 ) ;
#13 = ORIENTED_EDGE ( 'NONE', *, *, #222, .T. ) ;
#14 = FACE_OUTER_BOUND ( 'NONE', #162, .T. ) ;
#15 = PERSON_AND_ORGANIZATION_ROLE ( 'design_supplier' ) ;
#16 = PERSON_AND_ORGANIZATION_ROLE ( 'classification_officer' ) ;
#17 = DIRECTION ( 'NONE',  ( 4.275831445896959482E-31, 1.000000000000000000, 1.224646799147353207E-16 ) ) ;
#18 = PERSON ( 'UNSPECIFIED', 'UNSPECIFIED', 'UNSPECIFIED', ('UNSPECIFIED'), ('UNSPECIFIED'), ('UNSPECIFIED') ) ;
#19 = CALENDAR_DATE ( 2021, 8, 10 ) ;
#20 = DIRECTION ( 'NONE',  ( -3.491481338843133355E-15, 1.224646799147353207E-16, -1.000000000000000000 ) ) ;
#21 = CARTESIAN_POINT ( 'NONE',  ( 3.142333204958820020E-14, -1.102182119232617714E-15, 9.000000000000000000 ) ) ;
#22 = SHAPE_DEFINITION_REPRESENTATION ( #172, #75 ) ;
#23 = CLOSED_SHELL ( 'NONE', ( #4, #39, #57 ) ) ;
#24 = CARTESIAN_POINT ( 'NONE',  ( 0.0000000000000000000, 0.0000000000000000000, 0.0000000000000000000 ) ) ;
#25 = CARTESIAN_POINT ( 'NONE',  ( 3.248163108728531409E-14, 0.7499999999999963363, 9.303108891324553653 ) ) ;
#26 =( LENGTH_UNIT ( ) NAMED_UNIT ( * ) SI_UNIT ( .MILLI., .METRE. ) );
#27 = CONICAL_SURFACE ( 'NONE', #2, 0.5500000000000000444, 0.7853981633974512766 ) ;
#28 = VERTEX_POINT ( 'NONE', #193 ) ;
#29 = EDGE_LOOP ( 'NONE', ( #79 ) ) ;
#30 = PERSON_AND_ORGANIZATION ( #18, #207 ) ;
#31 = EDGE_LOOP ( 'NONE', ( #9 ) ) ;
#32 = DIRECTION ( 'NONE',  ( 3.491481338843133355E-15, -1.224646799147353207E-16, 1.000000000000000000 ) ) ;
#33 = EDGE_LOOP ( 'NONE', ( #92 ) ) ;
#34 = APPROVAL ( #67, 'UNSPECIFIED' ) ;
#35 = SECURITY_CLASSIFICATION ( '', '', #221 ) ;
#36 = ORIENTED_EDGE ( 'NONE', *, *, #158, .F. ) ;
#37 = PERSON_AND_ORGANIZATION ( #18, #207 ) ;
#38 = FACE_OUTER_BOUND ( 'NONE', #148, .T. ) ;
#39 = ADVANCED_FACE ( 'NONE', ( #53, #47 ), #107, .T. ) ;
#40 = CIRCLE ( 'NONE', #109, 0.5500000000000000444 ) ;
#41 = DIRECTION ( 'NONE',  ( 3.491481338843133355E-15, -1.224646799147353207E-16, 1.000000000000000000 ) ) ;
#42 = ADVANCED_FACE ( 'NONE', ( #185, #49 ), #103, .T. ) ;
#43 = AXIS2_PLACEMENT_3D ( 'NONE', #21, #155, #100 ) ;
#44 = AXIS2_PLACEMENT_3D ( 'NONE', #190, #41, #175 ) ;
#45 = DIRECTION ( 'NONE',  ( 0.0000000000000000000, 1.000000000000000000, 0.0000000000000000000 ) ) ;
#46 = DIRECTION ( 'NONE',  ( 0.0000000000000000000, 0.0000000000000000000, 1.000000000000000000 ) ) ;
#47 = FACE_OUTER_BOUND ( 'NONE', #94, .T. ) ;
#48 =( GEOMETRIC_REPRESENTATION_CONTEXT ( 3 ) GLOBAL_UNCERTAINTY_ASSIGNED_CONTEXT ( ( #149 ) ) GLOBAL_UNIT_ASSIGNED_CONTEXT ( ( #26, #50, #165 ) ) REPRESENTATION_CONTEXT ( 'NONE', 'WORKASPACE' ) );
#49 = FACE_OUTER_BOUND ( 'NONE', #33, .T. ) ;
#50 =( NAMED_UNIT ( * ) PLANE_ANGLE_UNIT ( ) SI_UNIT ( $, .RADIAN. ) );
#51 = CC_DESIGN_PERSON_AND_ORGANIZATION_ASSIGNMENT ( #110, #186, ( #105 ) ) ;
#52 = APPROVAL_DATE_TIME ( #6, #217 ) ;
#53 = FACE_OUTER_BOUND ( 'NONE', #122, .T. ) ;
#54 = CARTESIAN_POINT ( 'NONE',  ( 1.159089422239702892E-15, -4.065538415112182041E-17, 0.3319764047840380039 ) ) ;
#55 = CALENDAR_DATE ( 2021, 8, 10 ) ;
#56 = DATE_AND_TIME ( #19, #82 ) ;
#57 = ADVANCED_FACE ( 'NONE', ( #203 ), #154, .T. ) ;
#58 = CARTESIAN_POINT ( 'NONE',  ( 3.142333204958820020E-14, -1.102182119232617714E-15, 9.000000000000000000 ) ) ;
#59 = PLANE ( 'NONE',  #209 ) ;
#60 = LOCAL_TIME ( 10, 11, 43.00000000000000000, #83 ) ;
#61 = CARTESIAN_POINT ( 'NONE',  ( 1.040461438975253740E-13, 0.7499999999999963363, 29.80000000000000071 ) ) ;
#62 = CC_DESIGN_DATE_AND_TIME_ASSIGNMENT ( #98, #96, ( #105 ) ) ;
#63 = DIRECTION ( 'NONE',  ( 3.491481338843133355E-15, -1.224646799147353207E-16, 1.000000000000000000 ) ) ;
#64 = EDGE_LOOP ( 'NONE', ( #141 ) ) ;
#65 = CIRCLE ( 'NONE', #91, 0.5749999999999997335 ) ;
#66 = EDGE_CURVE ( 'NONE', #179, #179, #76, .T. ) ;
#67 = APPROVAL_STATUS ( 'not_yet_approved' ) ;
#68 = CARTESIAN_POINT ( 'NONE',  ( 3.142333204958820020E-14, 4.311809375152822833E-33, 9.000000000000000000 ) ) ;
#69 = PERSON_AND_ORGANIZATION ( #18, #207 ) ;
#70 = LOCAL_TIME ( 10, 11, 43.00000000000000000, #95 ) ;
#71 = FACE_OUTER_BOUND ( 'NONE', #147, .T. ) ;
#72 = DIRECTION ( 'NONE',  ( 0.0000000000000000000, 1.000000000000000000, 0.0000000000000000000 ) ) ;
#73 = CARTESIAN_POINT ( 'NONE',  ( 3.142333204958820020E-14, 0.5749999999999987343, 9.000000000000000000 ) ) ;
#74 = AXIS2_PLACEMENT_3D ( 'NONE', #220, #188, #208 ) ;
#75 = ADVANCED_BREP_SHAPE_REPRESENTATION ( '55761', ( #81, #10, #160 ), #48 ) ;
#76 = CIRCLE ( 'NONE', #43, 0.5749999999999997335 ) ;
#77 = ORIENTED_EDGE ( 'NONE', *, *, #158, .T. ) ;
#78 = AXIS2_PLACEMENT_3D ( 'NONE', #84, #3, #72 ) ;
#79 = ORIENTED_EDGE ( 'NONE', *, *, #66, .F. ) ;
#80 = DATE_AND_TIME ( #171, #70 ) ;
#81 = MANIFOLD_SOLID_BREP ( 'Corps-Déplacer/Copier1[1]', #138 ) ;
#82 = LOCAL_TIME ( 10, 11, 43.00000000000000000, #204 ) ;
#83 = COORDINATED_UNIVERSAL_TIME_OFFSET ( 1, 0, .AHEAD. ) ;
#84 = CARTESIAN_POINT ( 'NONE',  ( 3.248163108728531409E-14, -1.139302252587989529E-15, 9.303108891324553653 ) ) ;
#85 = CALENDAR_DATE ( 2021, 8, 10 ) ;
#86 = FACE_OUTER_BOUND ( 'NONE', #168, .T. ) ;
#87 = DIRECTION ( 'NONE',  ( -3.491481338843133355E-15, 1.224646799147353207E-16, -1.000000000000000000 ) ) ;
#88 = CARTESIAN_POINT ( 'NONE',  ( 3.142333204958820020E-14, 0.5749999999999987343, 9.000000000000000000 ) ) ;
#89 = ADVANCED_FACE ( 'NONE', ( #223, #157 ), #27, .T. ) ;
#90 = AXIS2_PLACEMENT_3D ( 'NONE', #143, #213, #108 ) ;
#91 = AXIS2_PLACEMENT_3D ( 'NONE', #58, #206, #114 ) ;
#92 = ORIENTED_EDGE ( 'NONE', *, *, #210, .T. ) ;
#93 = CC_DESIGN_PERSON_AND_ORGANIZATION_ASSIGNMENT ( #202, #16, ( #35 ) ) ;
#94 = EDGE_LOOP ( 'NONE', ( #77 ) ) ;
#95 = COORDINATED_UNIVERSAL_TIME_OFFSET ( 1, 0, .AHEAD. ) ;
#96 = DATE_TIME_ROLE ( 'creation_date' ) ;
#97 = PLANE ( 'NONE',  #44 ) ;
#98 = DATE_AND_TIME ( #85, #115 ) ;
#99 = DIRECTION ( 'NONE',  ( -3.491481338843133355E-15, 1.224646799147353207E-16, -1.000000000000000000 ) ) ;
#100 = DIRECTION ( 'NONE',  ( 0.0000000000000000000, 1.000000000000000000, 0.0000000000000000000 ) ) ;
#101 = APPROVAL ( #218, 'UNSPECIFIED' ) ;
#102 = CARTESIAN_POINT ( 'NONE',  ( 1.047444401652940007E-13, 0.5499999999999963807, 30.00000000000000000 ) ) ;
#103 = CONICAL_SURFACE ( 'NONE', #133, 0.7499999999999975575, 0.5235987755982927094 ) ;
#104 = CC_DESIGN_APPROVAL ( #34, ( #35 ) ) ;
#105 = PRODUCT_DEFINITION ( 'UNKNOWN', '', #200, #127 ) ;
#106 = VERTEX_POINT ( 'NONE', #73 ) ;
#107 = CYLINDRICAL_SURFACE ( 'NONE', #90, 0.5749999999999992895 ) ;
#108 = DIRECTION ( 'NONE',  ( 4.275831445896958607E-31, 1.000000000000000000, 1.224646799147353207E-16 ) ) ;
#109 = AXIS2_PLACEMENT_3D ( 'NONE', #135, #137, #45 ) ;
#110 = PERSON_AND_ORGANIZATION ( #18, #207 ) ;
#111 = DATE_AND_TIME ( #55, #60 ) ;
#112 = CARTESIAN_POINT ( 'NONE',  ( 1.047444401652940007E-13, -3.673940397442059178E-15, 30.00000000000000000 ) ) ;
#113 = APPROVAL_DATE_TIME ( #56, #34 ) ;
#114 = DIRECTION ( 'NONE',  ( 0.0000000000000000000, 1.000000000000000000, 0.0000000000000000000 ) ) ;
#115 = LOCAL_TIME ( 10, 11, 43.00000000000000000, #144 ) ;
#116 = DIRECTION ( 'NONE',  ( 3.491481338843133355E-15, -1.224646799147353207E-16, 1.000000000000000000 ) ) ;
#117 = CYLINDRICAL_SURFACE ( 'NONE', #145, 0.7499999999999986677 ) ;
#118 = EDGE_CURVE ( 'NONE', #192, #192, #161, .T. ) ;
#119 = PRODUCT_RELATED_PRODUCT_CATEGORY ( 'detail', '', ( #124 ) ) ;
#120 = ORIENTED_EDGE ( 'NONE', *, *, #210, .F. ) ;
#121 = CONICAL_SURFACE ( 'NONE', #178, 0.5749999999999989564, 1.047197551196592746 ) ;
#122 = EDGE_LOOP ( 'NONE', ( #128 ) ) ;
#123 = EDGE_LOOP ( 'NONE', ( #36 ) ) ;
#124 = PRODUCT ( '55761', '55761', '', ( #169 ) ) ;
#125 = APPROVAL_STATUS ( 'not_yet_approved' ) ;
#126 = PERSON_AND_ORGANIZATION_ROLE ( 'design_owner' ) ;
#127 = DESIGN_CONTEXT ( 'detailed design', #164, 'design' ) ;
#128 = ORIENTED_EDGE ( 'NONE', *, *, #194, .F. ) ;
#129 = PERSON_AND_ORGANIZATION ( #18, #207 ) ;
#130 = APPROVAL_ROLE ( '' ) ;
#131 = CC_DESIGN_PERSON_AND_ORGANIZATION_ASSIGNMENT ( #129, #15, ( #200 ) ) ;
#132 = DIRECTION ( 'NONE',  ( 0.0000000000000000000, 1.000000000000000000, 0.0000000000000000000 ) ) ;
#133 = AXIS2_PLACEMENT_3D ( 'NONE', #182, #32, #150 ) ;
#134 = FACE_OUTER_BOUND ( 'NONE', #31, .T. ) ;
#135 = CARTESIAN_POINT ( 'NONE',  ( 1.047444401652940007E-13, -3.673940397442059178E-15, 30.00000000000000000 ) ) ;
#136 = VERTEX_POINT ( 'NONE', #25 ) ;
#137 = DIRECTION ( 'NONE',  ( -3.491481338843133355E-15, 1.224646799147353207E-16, -1.000000000000000000 ) ) ;
#138 = CLOSED_SHELL ( 'NONE', ( #176, #42, #197, #89, #183 ) ) ;
#139 = LOCAL_TIME ( 10, 11, 43.00000000000000000, #163 ) ;
#140 = APPLICATION_CONTEXT ( 'configuration controlled 3d designs of mechanical parts and assemblies' ) ;
#141 = ORIENTED_EDGE ( 'NONE', *, *, #118, .F. ) ;
#142 = CC_DESIGN_PERSON_AND_ORGANIZATION_ASSIGNMENT ( #12, #126, ( #124 ) ) ;
#143 = CARTESIAN_POINT ( 'NONE',  ( 0.0000000000000000000, 0.0000000000000000000, 0.0000000000000000000 ) ) ;
#144 = COORDINATED_UNIVERSAL_TIME_OFFSET ( 1, 0, .AHEAD. ) ;
#145 = AXIS2_PLACEMENT_3D ( 'NONE', #24, #87, #17 ) ;
#146 = ORIENTED_EDGE ( 'NONE', *, *, #194, .T. ) ;
#147 = EDGE_LOOP ( 'NONE', ( #120 ) ) ;
#148 = EDGE_LOOP ( 'NONE', ( #211 ) ) ;
#149 = UNCERTAINTY_MEASURE_WITH_UNIT (LENGTH_MEASURE( 1.000000000000000082E-05 ), #26, 'distance_accuracy_value', 'NONE');
#150 = DIRECTION ( 'NONE',  ( 0.0000000000000000000, -1.000000000000000000, 0.0000000000000000000 ) ) ;
#151 = CC_DESIGN_APPROVAL ( #217, ( #105 ) ) ;
#152 = APPROVAL_ROLE ( '' ) ;
#153 = APPROVAL_DATE_TIME ( #80, #101 ) ;
#154 = PLANE ( 'NONE',  #205 ) ;
#155 = DIRECTION ( 'NONE',  ( -3.491481338843133355E-15, 1.224646799147353207E-16, -1.000000000000000000 ) ) ;
#156 = CIRCLE ( 'NONE', #174, 0.5749999999999989564 ) ;
#157 = FACE_BOUND ( 'NONE', #7, .T. ) ;
#158 = EDGE_CURVE ( 'NONE', #106, #106, #65, .T. ) ;
#159 = VERTEX_POINT ( 'NONE', #102 ) ;
#160 = AXIS2_PLACEMENT_3D ( 'NONE', #195, #46, #184 ) ;
#161 = CIRCLE ( 'NONE', #74, 0.7500000000000000000 ) ;
#162 = EDGE_LOOP ( 'NONE', ( #146 ) ) ;
#163 = COORDINATED_UNIVERSAL_TIME_OFFSET ( 1, 0, .AHEAD. ) ;
#164 = APPLICATION_CONTEXT ( 'configuration controlled 3d designs of mechanical parts and assemblies' ) ;
#165 =( NAMED_UNIT ( * ) SI_UNIT ( $, .STERADIAN. ) SOLID_ANGLE_UNIT ( ) );
#166 = CC_DESIGN_DATE_AND_TIME_ASSIGNMENT ( #111, #187, ( #35 ) ) ;
#167 = APPROVAL_PERSON_ORGANIZATION ( #30, #217, #8 ) ;
#168 = EDGE_LOOP ( 'NONE', ( #215 ) ) ;
#169 = MECHANICAL_CONTEXT ( 'NONE', #140, 'mechanical' ) ;
#170 = PERSON_AND_ORGANIZATION_ROLE ( 'creator' ) ;
#171 = CALENDAR_DATE ( 2021, 8, 10 ) ;
#172 = PRODUCT_DEFINITION_SHAPE ( 'NONE', 'NONE',  #105 ) ;
#173 = DIRECTION ( 'NONE',  ( 3.349443381543025101E-31, 1.000000000000000000, 9.427844978134838690E-17 ) ) ;
#174 = AXIS2_PLACEMENT_3D ( 'NONE', #54, #20, #173 ) ;
#175 = DIRECTION ( 'NONE',  ( -4.275831445896958607E-31, -1.000000000000000000, -1.224646799147353207E-16 ) ) ;
#176 = ADVANCED_FACE ( 'NONE', ( #38 ), #97, .F. ) ;
#177 = DIRECTION ( 'NONE',  ( 4.275831445896958607E-31, 1.000000000000000000, 1.224646799147353207E-16 ) ) ;
#178 = AXIS2_PLACEMENT_3D ( 'NONE', #201, #63, #199 ) ;
#179 = VERTEX_POINT ( 'NONE', #88 ) ;
#180 = APPLICATION_PROTOCOL_DEFINITION ( 'international standard', 'config_control_design', 1994, #164 ) ;
#181 = APPROVAL_PERSON_ORGANIZATION ( #37, #34, #130 ) ;
#182 = CARTESIAN_POINT ( 'NONE',  ( 3.248163108728531409E-14, -1.139302252587989529E-15, 9.303108891324553653 ) ) ;
#183 = ADVANCED_FACE ( 'NONE', ( #86 ), #59, .F. ) ;
#184 = DIRECTION ( 'NONE',  ( 1.000000000000000000, 0.0000000000000000000, 0.0000000000000000000 ) ) ;
#185 = FACE_BOUND ( 'NONE', #29, .T. ) ;
#186 = PERSON_AND_ORGANIZATION_ROLE ( 'creator' ) ;
#187 = DATE_TIME_ROLE ( 'classification_date' ) ;
#188 = DIRECTION ( 'NONE',  ( -3.491481338843133355E-15, 1.224646799147353207E-16, -1.000000000000000000 ) ) ;
#189 = CARTESIAN_POINT ( 'NONE',  ( 1.047444401652940007E-13, 4.124339402320052999E-33, 30.00000000000000000 ) ) ;
#190 = CARTESIAN_POINT ( 'NONE',  ( 3.142333204958820020E-14, 4.311809375152822833E-33, 9.000000000000000000 ) ) ;
#191 = DIRECTION ( 'NONE',  ( -3.491481338843133355E-15, 1.224646799147353207E-16, -1.000000000000000000 ) ) ;
#192 = VERTEX_POINT ( 'NONE', #61 ) ;
#193 = CARTESIAN_POINT ( 'NONE',  ( 1.159089422239703089E-15, 0.5749999999999989564, 0.3319764047840380594 ) ) ;
#194 = EDGE_CURVE ( 'NONE', #28, #28, #156, .T. ) ;
#195 = CARTESIAN_POINT ( 'NONE',  ( 0.0000000000000000000, 0.0000000000000000000, 0.0000000000000000000 ) ) ;
#196 = APPROVAL_PERSON_ORGANIZATION ( #219, #101, #152 ) ;
#197 = ADVANCED_FACE ( 'NONE', ( #71, #134 ), #117, .T. ) ;
#198 = CALENDAR_DATE ( 2021, 8, 10 ) ;
#199 = DIRECTION ( 'NONE',  ( -3.349443381543025101E-31, -1.000000000000000000, -9.427844978134838690E-17 ) ) ;
#200 = PRODUCT_DEFINITION_FORMATION_WITH_SPECIFIED_SOURCE ( 'ANY', '', #124, .NOT_KNOWN. ) ;
#201 = CARTESIAN_POINT ( 'NONE',  ( 1.159089422239702892E-15, -4.065538415112182041E-17, 0.3319764047840380039 ) ) ;
#202 = PERSON_AND_ORGANIZATION ( #18, #207 ) ;
#203 = FACE_OUTER_BOUND ( 'NONE', #123, .T. ) ;
#204 = COORDINATED_UNIVERSAL_TIME_OFFSET ( 1, 0, .AHEAD. ) ;
#205 = AXIS2_PLACEMENT_3D ( 'NONE', #68, #116, #1 ) ;
#206 = DIRECTION ( 'NONE',  ( -3.491481338843133355E-15, 1.224646799147353207E-16, -1.000000000000000000 ) ) ;
#207 = ORGANIZATION ( 'UNSPECIFIED', 'UNSPECIFIED', '' ) ;
#208 = DIRECTION ( 'NONE',  ( 0.0000000000000000000, 1.000000000000000000, 0.0000000000000000000 ) ) ;
#209 = AXIS2_PLACEMENT_3D ( 'NONE', #189, #191, #177 ) ;
#210 = EDGE_CURVE ( 'NONE', #136, #136, #214, .T. ) ;
#211 = ORIENTED_EDGE ( 'NONE', *, *, #66, .T. ) ;
#212 = CC_DESIGN_PERSON_AND_ORGANIZATION_ASSIGNMENT ( #69, #170, ( #200 ) ) ;
#213 = DIRECTION ( 'NONE',  ( -3.491481338843133355E-15, 1.224646799147353207E-16, -1.000000000000000000 ) ) ;
#214 = CIRCLE ( 'NONE', #78, 0.7499999999999975575 ) ;
#215 = ORIENTED_EDGE ( 'NONE', *, *, #222, .F. ) ;
#216 = APPLICATION_PROTOCOL_DEFINITION ( 'international standard', 'config_control_design', 1994, #140 ) ;
#217 = APPROVAL ( #125, 'UNSPECIFIED' ) ;
#218 = APPROVAL_STATUS ( 'not_yet_approved' ) ;
#219 = PERSON_AND_ORGANIZATION ( #18, #207 ) ;
#220 = CARTESIAN_POINT ( 'NONE',  ( 1.040461438975253740E-13, -3.649447461459112464E-15, 29.80000000000000071 ) ) ;
#221 = SECURITY_CLASSIFICATION_LEVEL ( 'unclassified' ) ;
#222 = EDGE_CURVE ( 'NONE', #159, #159, #40, .T. ) ;
#223 = FACE_OUTER_BOUND ( 'NONE', #64, .T. ) ;
ENDSEC;
END-ISO-10303-21;
