ISO-10303-21;
HEADER;
FILE_DESCRIPTION (( 'STEP AP203' ),
    '1' );
FILE_NAME ('55759.step',
    '2021-10-08T08:11:41',
    ( '' ),
    ( '' ),
    'SwSTEP 2.0',
    'SolidWorks 2019',
    '' );
FILE_SCHEMA (( 'CONFIG_CONTROL_DESIGN' ));
ENDSEC;

DATA;
#1 = AXIS2_PLACEMENT_3D ( 'NONE', #9, #30, #63 ) ;
#2 = FACE_OUTER_BOUND ( 'NONE', #47, .T. ) ;
#3 = EDGE_CURVE ( 'NONE', #35, #35, #127, .T. ) ;
#4 = PERSON_AND_ORGANIZATION_ROLE ( 'classification_officer' ) ;
#5 = DIRECTION ( 'NONE',  ( 0.0000000000000000000, -1.000000000000000000, 0.0000000000000000000 ) ) ;
#6 = CIRCLE ( 'NONE', #152, 0.7499999999999975575 ) ;
#7 = FACE_OUTER_BOUND ( 'NONE', #33, .T. ) ;
#8 = CC_DESIGN_PERSON_AND_ORGANIZATION_ASSIGNMENT ( #205, #4, ( #62 ) ) ;
#9 = CARTESIAN_POINT ( 'NONE',  ( 0.0000000000000000000, 0.0000000000000000000, 0.0000000000000000000 ) ) ;
#10 = DIRECTION ( 'NONE',  ( 3.491481338843133355E-15, -1.224646799147353207E-16, 1.000000000000000000 ) ) ;
#11 = CARTESIAN_POINT ( 'NONE',  ( 1.040461438975253740E-13, 0.7499999999999963363, 29.80000000000000071 ) ) ;
#12 = UNCERTAINTY_MEASURE_WITH_UNIT (LENGTH_MEASURE( 1.000000000000000082E-05 ), #115, 'distance_accuracy_value', 'NONE');
#13 = PERSON_AND_ORGANIZATION ( #125, #202 ) ;
#14 = CC_DESIGN_SECURITY_CLASSIFICATION ( #62, ( #22 ) ) ;
#15 = ORIENTED_EDGE ( 'NONE', *, *, #130, .T. ) ;
#16 = APPROVAL_DATE_TIME ( #122, #32 ) ;
#17 = CARTESIAN_POINT ( 'NONE',  ( 1.040461438975253740E-13, -3.649447461459112464E-15, 29.80000000000000071 ) ) ;
#18 = CONICAL_SURFACE ( 'NONE', #55, 0.5500000000000000444, 0.7853981633974512766 ) ;
#19 = CALENDAR_DATE ( 2021, 8, 10 ) ;
#20 = DIRECTION ( 'NONE',  ( 0.0000000000000000000, 1.000000000000000000, 0.0000000000000000000 ) ) ;
#21 = CARTESIAN_POINT ( 'NONE',  ( 0.0000000000000000000, 0.0000000000000000000, 0.0000000000000000000 ) ) ;
#22 = PRODUCT_DEFINITION_FORMATION_WITH_SPECIFIED_SOURCE ( 'ANY', '', #111, .NOT_KNOWN. ) ;
#23 = CALENDAR_DATE ( 2021, 8, 10 ) ;
#24 = FACE_OUTER_BOUND ( 'NONE', #72, .T. ) ;
#25 = CARTESIAN_POINT ( 'NONE',  ( 1.047444401652940007E-13, -3.673940397442059178E-15, 30.00000000000000000 ) ) ;
#26 = AXIS2_PLACEMENT_3D ( 'NONE', #150, #132, #134 ) ;
#27 = CIRCLE ( 'NONE', #175, 0.7500000000000000000 ) ;
#28 = ADVANCED_BREP_SHAPE_REPRESENTATION ( '55759', ( #129, #210, #26 ), #211 ) ;
#29 = PRODUCT_RELATED_PRODUCT_CATEGORY ( 'detail', '', ( #111 ) ) ;
#30 = DIRECTION ( 'NONE',  ( -3.491481338843133355E-15, 1.224646799147353207E-16, -1.000000000000000000 ) ) ;
#31 = EDGE_LOOP ( 'NONE', ( #181 ) ) ;
#32 = APPROVAL ( #172, 'UNSPECIFIED' ) ;
#33 = EDGE_LOOP ( 'NONE', ( #196 ) ) ;
#34 = CC_DESIGN_PERSON_AND_ORGANIZATION_ASSIGNMENT ( #68, #183, ( #217 ) ) ;
#35 = VERTEX_POINT ( 'NONE', #110 ) ;
#36 = DIRECTION ( 'NONE',  ( 0.0000000000000000000, 1.000000000000000000, 0.0000000000000000000 ) ) ;
#37 = DIRECTION ( 'NONE',  ( -3.491481338843133355E-15, 1.224646799147353207E-16, -1.000000000000000000 ) ) ;
#38 = CC_DESIGN_PERSON_AND_ORGANIZATION_ASSIGNMENT ( #13, #77, ( #111 ) ) ;
#39 = DIRECTION ( 'NONE',  ( 0.0000000000000000000, 1.000000000000000000, 0.0000000000000000000 ) ) ;
#40 = DATE_TIME_ROLE ( 'classification_date' ) ;
#41 = LOCAL_TIME ( 10, 11, 41.00000000000000000, #153 ) ;
#42 = FACE_OUTER_BOUND ( 'NONE', #133, .T. ) ;
#43 = DATE_TIME_ROLE ( 'creation_date' ) ;
#44 = CC_DESIGN_PERSON_AND_ORGANIZATION_ASSIGNMENT ( #137, #184, ( #22 ) ) ;
#45 = APPROVAL_DATE_TIME ( #220, #67 ) ;
#46 = ORIENTED_EDGE ( 'NONE', *, *, #159, .F. ) ;
#47 = EDGE_LOOP ( 'NONE', ( #98 ) ) ;
#48 = VERTEX_POINT ( 'NONE', #149 ) ;
#49 = PRODUCT_DEFINITION_SHAPE ( 'NONE', 'NONE',  #217 ) ;
#50 = PERSON_AND_ORGANIZATION ( #125, #202 ) ;
#51 = DIRECTION ( 'NONE',  ( 3.491481338843133355E-15, -1.224646799147353207E-16, 1.000000000000000000 ) ) ;
#52 = DIRECTION ( 'NONE',  ( -3.491481338843133355E-15, 1.224646799147353207E-16, -1.000000000000000000 ) ) ;
#53 = COORDINATED_UNIVERSAL_TIME_OFFSET ( 1, 0, .AHEAD. ) ;
#54 = DIRECTION ( 'NONE',  ( 4.275831445896958607E-31, 1.000000000000000000, 1.224646799147352961E-16 ) ) ;
#55 = AXIS2_PLACEMENT_3D ( 'NONE', #82, #69, #39 ) ;
#56 = FACE_BOUND ( 'NONE', #80, .T. ) ;
#57 = PERSON_AND_ORGANIZATION_ROLE ( 'creator' ) ;
#58 = CARTESIAN_POINT ( 'NONE',  ( 3.263281666409918300E-14, -1.144605128781614158E-15, 9.346410161513775350 ) ) ;
#59 = CONICAL_SURFACE ( 'NONE', #182, 0.5499999999999989342, 1.047197551196592746 ) ;
#60 = LOCAL_TIME ( 10, 11, 41.00000000000000000, #119 ) ;
#61 = ADVANCED_FACE ( 'NONE', ( #173, #156 ), #103, .T. ) ;
#62 = SECURITY_CLASSIFICATION ( '', '', #171 ) ;
#63 = DIRECTION ( 'NONE',  ( 4.275831445896959482E-31, 1.000000000000000000, 1.224646799147353207E-16 ) ) ;
#64 = APPROVAL_ROLE ( '' ) ;
#65 = ORIENTED_EDGE ( 'NONE', *, *, #193, .T. ) ;
#66 = EDGE_LOOP ( 'NONE', ( #151 ) ) ;
#67 = APPROVAL ( #197, 'UNSPECIFIED' ) ;
#68 = PERSON_AND_ORGANIZATION ( #125, #202 ) ;
#69 = DIRECTION ( 'NONE',  ( -3.491481338843133355E-15, 1.224646799147353207E-16, -1.000000000000000000 ) ) ;
#70 = COORDINATED_UNIVERSAL_TIME_OFFSET ( 1, 0, .AHEAD. ) ;
#71 = DIRECTION ( 'NONE',  ( 0.0000000000000000000, 1.000000000000000000, 0.0000000000000000000 ) ) ;
#72 = EDGE_LOOP ( 'NONE', ( #83 ) ) ;
#73 = APPROVAL_PERSON_ORGANIZATION ( #81, #67, #64 ) ;
#74 = DIRECTION ( 'NONE',  ( -3.491481338843133355E-15, 1.224646799147353207E-16, -1.000000000000000000 ) ) ;
#75 = AXIS2_PLACEMENT_3D ( 'NONE', #223, #37, #20 ) ;
#76 = AXIS2_PLACEMENT_3D ( 'NONE', #58, #123, #5 ) ;
#77 = PERSON_AND_ORGANIZATION_ROLE ( 'design_owner' ) ;
#78 = CALENDAR_DATE ( 2021, 8, 10 ) ;
#79 = CARTESIAN_POINT ( 'NONE',  ( 1.108694229968411745E-15, 0.5499999999999989342, 0.3175426480542972718 ) ) ;
#80 = EDGE_LOOP ( 'NONE', ( #148 ) ) ;
#81 = PERSON_AND_ORGANIZATION ( #125, #202 ) ;
#82 = CARTESIAN_POINT ( 'NONE',  ( 1.047444401652940007E-13, -3.673940397442059178E-15, 30.00000000000000000 ) ) ;
#83 = ORIENTED_EDGE ( 'NONE', *, *, #3, .F. ) ;
#84 = SHAPE_DEFINITION_REPRESENTATION ( #49, #28 ) ;
#85 = APPLICATION_CONTEXT ( 'configuration controlled 3d designs of mechanical parts and assemblies' ) ;
#86 = CLOSED_SHELL ( 'NONE', ( #164, #145, #203, #108, #136 ) ) ;
#87 = CARTESIAN_POINT ( 'NONE',  ( 1.047444401652940007E-13, 4.124339402320052999E-33, 30.00000000000000000 ) ) ;
#88 = PLANE ( 'NONE',  #190 ) ;
#89 = APPROVAL_DATE_TIME ( #104, #97 ) ;
#90 = AXIS2_PLACEMENT_3D ( 'NONE', #87, #74, #141 ) ;
#91 = AXIS2_PLACEMENT_3D ( 'NONE', #174, #106, #142 ) ;
#92 = ADVANCED_FACE ( 'NONE', ( #186 ), #59, .T. ) ;
#93 = LOCAL_TIME ( 10, 11, 41.00000000000000000, #70 ) ;
#94 = ORIENTED_EDGE ( 'NONE', *, *, #159, .T. ) ;
#95 =( NAMED_UNIT ( * ) SI_UNIT ( $, .STERADIAN. ) SOLID_ANGLE_UNIT ( ) );
#96 = CARTESIAN_POINT ( 'NONE',  ( 3.142333204958820020E-14, 0.5500000000000001554, 9.000000000000000000 ) ) ;
#97 = APPROVAL ( #188, 'UNSPECIFIED' ) ;
#98 = ORIENTED_EDGE ( 'NONE', *, *, #121, .F. ) ;
#99 = PLANE ( 'NONE',  #143 ) ;
#100 = CIRCLE ( 'NONE', #91, 0.5499999999999989342 ) ;
#101 = EDGE_LOOP ( 'NONE', ( #114 ) ) ;
#102 = DATE_AND_TIME ( #200, #93 ) ;
#103 = CYLINDRICAL_SURFACE ( 'NONE', #155, 0.5500000000000001554 ) ;
#104 = DATE_AND_TIME ( #23, #60 ) ;
#105 = LOCAL_TIME ( 10, 11, 41.00000000000000000, #53 ) ;
#106 = DIRECTION ( 'NONE',  ( -3.491481338843133355E-15, 1.224646799147353207E-16, -1.000000000000000000 ) ) ;
#107 = APPROVAL_PERSON_ORGANIZATION ( #50, #32, #117 ) ;
#108 = ADVANCED_FACE ( 'NONE', ( #2, #116 ), #18, .T. ) ;
#109 = DIRECTION ( 'NONE',  ( 0.0000000000000000000, 1.000000000000000000, 0.0000000000000000000 ) ) ;
#110 = CARTESIAN_POINT ( 'NONE',  ( 1.047444401652940007E-13, 0.5499999999999963807, 30.00000000000000000 ) ) ;
#111 = PRODUCT ( '55759', '55759', '', ( #146 ) ) ;
#112 = VERTEX_POINT ( 'NONE', #11 ) ;
#113 = CALENDAR_DATE ( 2021, 8, 10 ) ;
#114 = ORIENTED_EDGE ( 'NONE', *, *, #130, .F. ) ;
#115 =( LENGTH_UNIT ( ) NAMED_UNIT ( * ) SI_UNIT ( .MILLI., .METRE. ) );
#116 = FACE_BOUND ( 'NONE', #66, .T. ) ;
#117 = APPROVAL_ROLE ( '' ) ;
#118 = DIRECTION ( 'NONE',  ( -3.491481338843133355E-15, 1.224646799147353207E-16, -1.000000000000000000 ) ) ;
#119 = COORDINATED_UNIVERSAL_TIME_OFFSET ( 1, 0, .AHEAD. ) ;
#120 = AXIS2_PLACEMENT_3D ( 'NONE', #25, #118, #36 ) ;
#121 = EDGE_CURVE ( 'NONE', #112, #112, #27, .T. ) ;
#122 = DATE_AND_TIME ( #19, #105 ) ;
#123 = DIRECTION ( 'NONE',  ( 3.491481338843133355E-15, -1.224646799147353207E-16, 1.000000000000000000 ) ) ;
#124 = CARTESIAN_POINT ( 'NONE',  ( 3.142333204958820020E-14, 4.124339402320101579E-33, 9.000000000000000000 ) ) ;
#125 = PERSON ( 'UNSPECIFIED', 'UNSPECIFIED', 'UNSPECIFIED', ('UNSPECIFIED'), ('UNSPECIFIED'), ('UNSPECIFIED') ) ;
#126 = CC_DESIGN_PERSON_AND_ORGANIZATION_ASSIGNMENT ( #162, #57, ( #22 ) ) ;
#127 = CIRCLE ( 'NONE', #120, 0.5500000000000000444 ) ;
#128 = LOCAL_TIME ( 10, 11, 41.00000000000000000, #131 ) ;
#129 = MANIFOLD_SOLID_BREP ( 'Corps-Déplacer/Copier1[1]', #86 ) ;
#130 = EDGE_CURVE ( 'NONE', #180, #180, #144, .T. ) ;
#131 = COORDINATED_UNIVERSAL_TIME_OFFSET ( 1, 0, .AHEAD. ) ;
#132 = DIRECTION ( 'NONE',  ( 0.0000000000000000000, 0.0000000000000000000, 1.000000000000000000 ) ) ;
#133 = EDGE_LOOP ( 'NONE', ( #166 ) ) ;
#134 = DIRECTION ( 'NONE',  ( 1.000000000000000000, 0.0000000000000000000, 0.0000000000000000000 ) ) ;
#135 = EDGE_LOOP ( 'NONE', ( #15 ) ) ;
#136 = ADVANCED_FACE ( 'NONE', ( #24 ), #207, .F. ) ;
#137 = PERSON_AND_ORGANIZATION ( #125, #202 ) ;
#138 = APPLICATION_CONTEXT ( 'configuration controlled 3d designs of mechanical parts and assemblies' ) ;
#139 = DIRECTION ( 'NONE',  ( -3.491481338843133355E-15, 1.224646799147353207E-16, -1.000000000000000000 ) ) ;
#140 = CC_DESIGN_DATE_AND_TIME_ASSIGNMENT ( #170, #43, ( #217 ) ) ;
#141 = DIRECTION ( 'NONE',  ( 4.275831445896958607E-31, 1.000000000000000000, 1.224646799147353207E-16 ) ) ;
#142 = DIRECTION ( 'NONE',  ( 3.501690807976799148E-31, 1.000000000000000000, 9.856383386231877316E-17 ) ) ;
#143 = AXIS2_PLACEMENT_3D ( 'NONE', #195, #10, #194 ) ;
#144 = CIRCLE ( 'NONE', #75, 0.5500000000000012657 ) ;
#145 = ADVANCED_FACE ( 'NONE', ( #56, #209 ), #212, .T. ) ;
#146 = MECHANICAL_CONTEXT ( 'NONE', #138, 'mechanical' ) ;
#147 =( NAMED_UNIT ( * ) PLANE_ANGLE_UNIT ( ) SI_UNIT ( $, .RADIAN. ) );
#148 = ORIENTED_EDGE ( 'NONE', *, *, #191, .F. ) ;
#149 = CARTESIAN_POINT ( 'NONE',  ( 3.263281666409918300E-14, 0.7499999999999963363, 9.346410161513775350 ) ) ;
#150 = CARTESIAN_POINT ( 'NONE',  ( 0.0000000000000000000, 0.0000000000000000000, 0.0000000000000000000 ) ) ;
#151 = ORIENTED_EDGE ( 'NONE', *, *, #3, .T. ) ;
#152 = AXIS2_PLACEMENT_3D ( 'NONE', #204, #52, #109 ) ;
#153 = COORDINATED_UNIVERSAL_TIME_OFFSET ( 1, 0, .AHEAD. ) ;
#154 = DIRECTION ( 'NONE',  ( -3.491481338843133355E-15, 1.224646799147353207E-16, -1.000000000000000000 ) ) ;
#155 = AXIS2_PLACEMENT_3D ( 'NONE', #21, #139, #54 ) ;
#156 = FACE_OUTER_BOUND ( 'NONE', #135, .T. ) ;
#157 = CIRCLE ( 'NONE', #176, 0.5500000000000012657 ) ;
#158 = DIRECTION ( 'NONE',  ( -3.501690807976799148E-31, -1.000000000000000000, -9.856383386231877316E-17 ) ) ;
#159 = EDGE_CURVE ( 'NONE', #213, #213, #100, .T. ) ;
#160 = DIRECTION ( 'NONE',  ( 3.491481338843133355E-15, -1.224646799147353207E-16, 1.000000000000000000 ) ) ;
#161 = CARTESIAN_POINT ( 'NONE',  ( 3.142333204958820020E-14, -1.102182119232617714E-15, 9.000000000000000000 ) ) ;
#162 = PERSON_AND_ORGANIZATION ( #125, #202 ) ;
#163 = CYLINDRICAL_SURFACE ( 'NONE', #1, 0.7499999999999986677 ) ;
#164 = ADVANCED_FACE ( 'NONE', ( #206 ), #88, .F. ) ;
#165 = APPLICATION_PROTOCOL_DEFINITION ( 'international standard', 'config_control_design', 1994, #138 ) ;
#166 = ORIENTED_EDGE ( 'NONE', *, *, #193, .F. ) ;
#167 = FACE_OUTER_BOUND ( 'NONE', #101, .T. ) ;
#168 = EDGE_LOOP ( 'NONE', ( #46 ) ) ;
#169 = CC_DESIGN_APPROVAL ( #67, ( #217 ) ) ;
#170 = DATE_AND_TIME ( #113, #128 ) ;
#171 = SECURITY_CLASSIFICATION_LEVEL ( 'unclassified' ) ;
#172 = APPROVAL_STATUS ( 'not_yet_approved' ) ;
#173 = FACE_OUTER_BOUND ( 'NONE', #168, .T. ) ;
#174 = CARTESIAN_POINT ( 'NONE',  ( 1.108694229968411548E-15, -3.888775875324696241E-17, 0.3175426480542972163 ) ) ;
#175 = AXIS2_PLACEMENT_3D ( 'NONE', #17, #154, #71 ) ;
#176 = AXIS2_PLACEMENT_3D ( 'NONE', #161, #208, #189 ) ;
#177 = CC_DESIGN_DATE_AND_TIME_ASSIGNMENT ( #102, #40, ( #62 ) ) ;
#178 = CARTESIAN_POINT ( 'NONE',  ( 3.142333204958820020E-14, 0.5500000000000001554, 9.000000000000000000 ) ) ;
#179 = CC_DESIGN_APPROVAL ( #97, ( #22 ) ) ;
#180 = VERTEX_POINT ( 'NONE', #96 ) ;
#181 = ORIENTED_EDGE ( 'NONE', *, *, #191, .T. ) ;
#182 = AXIS2_PLACEMENT_3D ( 'NONE', #201, #51, #158 ) ;
#183 = PERSON_AND_ORGANIZATION_ROLE ( 'creator' ) ;
#184 = PERSON_AND_ORGANIZATION_ROLE ( 'design_supplier' ) ;
#185 = DIRECTION ( 'NONE',  ( -4.275831445896958607E-31, -1.000000000000000000, -1.224646799147353207E-16 ) ) ;
#186 = FACE_OUTER_BOUND ( 'NONE', #215, .T. ) ;
#187 = DESIGN_CONTEXT ( 'detailed design', #85, 'design' ) ;
#188 = APPROVAL_STATUS ( 'not_yet_approved' ) ;
#189 = DIRECTION ( 'NONE',  ( 0.0000000000000000000, 1.000000000000000000, 0.0000000000000000000 ) ) ;
#190 = AXIS2_PLACEMENT_3D ( 'NONE', #124, #160, #185 ) ;
#191 = EDGE_CURVE ( 'NONE', #219, #219, #157, .T. ) ;
#192 = CC_DESIGN_APPROVAL ( #32, ( #62 ) ) ;
#193 = EDGE_CURVE ( 'NONE', #48, #48, #6, .T. ) ;
#194 = DIRECTION ( 'NONE',  ( -4.275831445896958607E-31, -1.000000000000000000, -1.224646799147353207E-16 ) ) ;
#195 = CARTESIAN_POINT ( 'NONE',  ( 3.142333204958820020E-14, 4.124339402320101579E-33, 9.000000000000000000 ) ) ;
#196 = ORIENTED_EDGE ( 'NONE', *, *, #121, .T. ) ;
#197 = APPROVAL_STATUS ( 'not_yet_approved' ) ;
#198 = APPROVAL_PERSON_ORGANIZATION ( #214, #97, #221 ) ;
#199 = EDGE_LOOP ( 'NONE', ( #65 ) ) ;
#200 = CALENDAR_DATE ( 2021, 8, 10 ) ;
#201 = CARTESIAN_POINT ( 'NONE',  ( 1.108694229968411548E-15, -3.888775875324696241E-17, 0.3175426480542972163 ) ) ;
#202 = ORGANIZATION ( 'UNSPECIFIED', 'UNSPECIFIED', '' ) ;
#203 = ADVANCED_FACE ( 'NONE', ( #42, #7 ), #163, .T. ) ;
#204 = CARTESIAN_POINT ( 'NONE',  ( 3.263281666409918300E-14, -1.144605128781614158E-15, 9.346410161513775350 ) ) ;
#205 = PERSON_AND_ORGANIZATION ( #125, #202 ) ;
#206 = FACE_OUTER_BOUND ( 'NONE', #31, .T. ) ;
#207 = PLANE ( 'NONE',  #90 ) ;
#208 = DIRECTION ( 'NONE',  ( -3.491481338843133355E-15, 1.224646799147353207E-16, -1.000000000000000000 ) ) ;
#209 = FACE_OUTER_BOUND ( 'NONE', #199, .T. ) ;
#210 = MANIFOLD_SOLID_BREP ( 'Corps-Déplacer/Copier1[2]', #218 ) ;
#211 =( GEOMETRIC_REPRESENTATION_CONTEXT ( 3 ) GLOBAL_UNCERTAINTY_ASSIGNED_CONTEXT ( ( #12 ) ) GLOBAL_UNIT_ASSIGNED_CONTEXT ( ( #115, #147, #95 ) ) REPRESENTATION_CONTEXT ( 'NONE', 'WORKASPACE' ) );
#212 = CONICAL_SURFACE ( 'NONE', #76, 0.7499999999999975575, 0.5235987755982896008 ) ;
#213 = VERTEX_POINT ( 'NONE', #79 ) ;
#214 = PERSON_AND_ORGANIZATION ( #125, #202 ) ;
#215 = EDGE_LOOP ( 'NONE', ( #94 ) ) ;
#216 = APPLICATION_PROTOCOL_DEFINITION ( 'international standard', 'config_control_design', 1994, #85 ) ;
#217 = PRODUCT_DEFINITION ( 'UNKNOWN', '', #22, #187 ) ;
#218 = CLOSED_SHELL ( 'NONE', ( #92, #61, #222 ) ) ;
#219 = VERTEX_POINT ( 'NONE', #178 ) ;
#220 = DATE_AND_TIME ( #78, #41 ) ;
#221 = APPROVAL_ROLE ( '' ) ;
#222 = ADVANCED_FACE ( 'NONE', ( #167 ), #99, .T. ) ;
#223 = CARTESIAN_POINT ( 'NONE',  ( 3.142333204958820020E-14, -1.102182119232617714E-15, 9.000000000000000000 ) ) ;
ENDSEC;
END-ISO-10303-21;
