ISO-10303-21;
HEADER;
FILE_DESCRIPTION (( 'STEP AP203' ),
    '1' );
FILE_NAME ('55757.step',
    '2021-10-08T08:11:38',
    ( '' ),
    ( '' ),
    'SwSTEP 2.0',
    'SolidWorks 2019',
    '' );
FILE_SCHEMA (( 'CONFIG_CONTROL_DESIGN' ));
ENDSEC;

DATA;
#1 = DIRECTION ( 'NONE',  ( 3.491481338843133355E-15, -1.224646799147353207E-16, 1.000000000000000000 ) ) ;
#2 = VERTEX_POINT ( 'NONE', #157 ) ;
#3 = EDGE_CURVE ( 'NONE', #184, #184, #50, .T. ) ;
#4 = CC_DESIGN_APPROVAL ( #29, ( #47 ) ) ;
#5 = LOCAL_TIME ( 10, 11, 38.00000000000000000, #172 ) ;
#6 = CARTESIAN_POINT ( 'NONE',  ( 1.040461438975253740E-13, 0.7499999999999963363, 29.80000000000000071 ) ) ;
#7 = CLOSED_SHELL ( 'NONE', ( #133, #200, #24, #109, #132 ) ) ;
#8 = PERSON_AND_ORGANIZATION_ROLE ( 'design_supplier' ) ;
#9 = CC_DESIGN_APPROVAL ( #95, ( #212 ) ) ;
#10 = EDGE_LOOP ( 'NONE', ( #12 ) ) ;
#11 = AXIS2_PLACEMENT_3D ( 'NONE', #38, #147, #113 ) ;
#12 = ORIENTED_EDGE ( 'NONE', *, *, #112, .F. ) ;
#13 = FACE_OUTER_BOUND ( 'NONE', #216, .T. ) ;
#14 = EDGE_CURVE ( 'NONE', #88, #88, #76, .T. ) ;
#15 = EDGE_LOOP ( 'NONE', ( #217 ) ) ;
#16 = DIRECTION ( 'NONE',  ( -3.491481338843133355E-15, 1.224646799147353207E-16, -1.000000000000000000 ) ) ;
#17 = CARTESIAN_POINT ( 'NONE',  ( 3.278400224091305821E-14, -1.149908004975238788E-15, 9.389711431702998823 ) ) ;
#18 = DIRECTION ( 'NONE',  ( -3.491481338843133355E-15, 1.224646799147353207E-16, -1.000000000000000000 ) ) ;
#19 = FACE_OUTER_BOUND ( 'NONE', #27, .T. ) ;
#20 = CARTESIAN_POINT ( 'NONE',  ( 3.142333204958820020E-14, 0.5249999999999990230, 9.000000000000000000 ) ) ;
#21 =( NAMED_UNIT ( * ) PLANE_ANGLE_UNIT ( ) SI_UNIT ( $, .RADIAN. ) );
#22 = CONICAL_SURFACE ( 'NONE', #215, 0.5500000000000000444, 0.7853981633974512766 ) ;
#23 = PERSON_AND_ORGANIZATION ( #152, #181 ) ;
#24 = ADVANCED_FACE ( 'NONE', ( #52, #19 ), #67, .T. ) ;
#25 = CONICAL_SURFACE ( 'NONE', #125, 0.7499999999999975575, 0.5235987755982922653 ) ;
#26 = AXIS2_PLACEMENT_3D ( 'NONE', #31, #1, #182 ) ;
#27 = EDGE_LOOP ( 'NONE', ( #78 ) ) ;
#28 = FACE_BOUND ( 'NONE', #137, .T. ) ;
#29 = APPROVAL ( #155, 'UNSPECIFIED' ) ;
#30 = FACE_OUTER_BOUND ( 'NONE', #169, .T. ) ;
#31 = CARTESIAN_POINT ( 'NONE',  ( 1.058299037697120006E-15, -3.712013335537209208E-17, 0.3031088913245563732 ) ) ;
#32 = DIRECTION ( 'NONE',  ( -3.491481338843133355E-15, 1.224646799147353207E-16, -1.000000000000000000 ) ) ;
#33 = CIRCLE ( 'NONE', #11, 0.7500000000000000000 ) ;
#34 = DIRECTION ( 'NONE',  ( 0.0000000000000000000, 1.000000000000000000, 0.0000000000000000000 ) ) ;
#35 = UNCERTAINTY_MEASURE_WITH_UNIT (LENGTH_MEASURE( 1.000000000000000082E-05 ), #71, 'distance_accuracy_value', 'NONE');
#36 = APPLICATION_PROTOCOL_DEFINITION ( 'international standard', 'config_control_design', 1994, #86 ) ;
#37 = VERTEX_POINT ( 'NONE', #128 ) ;
#38 = CARTESIAN_POINT ( 'NONE',  ( 1.040461438975253740E-13, -3.649447461459112464E-15, 29.80000000000000071 ) ) ;
#39 = COORDINATED_UNIVERSAL_TIME_OFFSET ( 1, 0, .AHEAD. ) ;
#40 = LOCAL_TIME ( 10, 11, 38.00000000000000000, #73 ) ;
#41 = PERSON_AND_ORGANIZATION ( #152, #181 ) ;
#42 = CC_DESIGN_PERSON_AND_ORGANIZATION_ASSIGNMENT ( #159, #8, ( #119 ) ) ;
#43 = PRODUCT_DEFINITION_SHAPE ( 'NONE', 'NONE',  #47 ) ;
#44 = ORIENTED_EDGE ( 'NONE', *, *, #127, .F. ) ;
#45 = CARTESIAN_POINT ( 'NONE',  ( 3.142333204958820020E-14, 3.936869429487360483E-33, 9.000000000000000000 ) ) ;
#46 = EDGE_LOOP ( 'NONE', ( #104 ) ) ;
#47 = PRODUCT_DEFINITION ( 'UNKNOWN', '', #119, #108 ) ;
#48 = CARTESIAN_POINT ( 'NONE',  ( 3.142333204958820020E-14, 3.936869429487360483E-33, 9.000000000000000000 ) ) ;
#49 = PLANE ( 'NONE',  #69 ) ;
#50 = CIRCLE ( 'NONE', #135, 0.5250000000000000222 ) ;
#51 = CARTESIAN_POINT ( 'NONE',  ( 1.047444401652940007E-13, -3.673940397442059178E-15, 30.00000000000000000 ) ) ;
#52 = FACE_OUTER_BOUND ( 'NONE', #15, .T. ) ;
#53 = CIRCLE ( 'NONE', #222, 0.5500000000000000444 ) ;
#54 = PERSON_AND_ORGANIZATION ( #152, #181 ) ;
#55 = LOCAL_TIME ( 10, 11, 38.00000000000000000, #160 ) ;
#56 = MECHANICAL_CONTEXT ( 'NONE', #187, 'mechanical' ) ;
#57 = PRODUCT_RELATED_PRODUCT_CATEGORY ( 'detail', '', ( #118 ) ) ;
#58 = AXIS2_PLACEMENT_3D ( 'NONE', #209, #186, #144 ) ;
#59 = MANIFOLD_SOLID_BREP ( 'Corps-Déplacer/Copier1[1]', #7 ) ;
#60 = DATE_AND_TIME ( #75, #5 ) ;
#61 = APPROVAL_DATE_TIME ( #213, #95 ) ;
#62 = SHAPE_DEFINITION_REPRESENTATION ( #43, #161 ) ;
#63 = PLANE ( 'NONE',  #178 ) ;
#64 = ADVANCED_FACE ( 'NONE', ( #166 ), #49, .T. ) ;
#65 = DIRECTION ( 'NONE',  ( -3.491481338843133355E-15, 1.224646799147353207E-16, -1.000000000000000000 ) ) ;
#66 = ORIENTED_EDGE ( 'NONE', *, *, #127, .T. ) ;
#67 = CYLINDRICAL_SURFACE ( 'NONE', #98, 0.7499999999999986677 ) ;
#68 = DIRECTION ( 'NONE',  ( -3.491481338843133355E-15, 1.224646799147353207E-16, -1.000000000000000000 ) ) ;
#69 = AXIS2_PLACEMENT_3D ( 'NONE', #48, #124, #85 ) ;
#70 = DIRECTION ( 'NONE',  ( 0.0000000000000000000, 1.000000000000000000, 0.0000000000000000000 ) ) ;
#71 =( LENGTH_UNIT ( ) NAMED_UNIT ( * ) SI_UNIT ( .MILLI., .METRE. ) );
#72 = LOCAL_TIME ( 10, 11, 38.00000000000000000, #39 ) ;
#73 = COORDINATED_UNIVERSAL_TIME_OFFSET ( 1, 0, .AHEAD. ) ;
#74 = VERTEX_POINT ( 'NONE', #6 ) ;
#75 = CALENDAR_DATE ( 2021, 8, 10 ) ;
#76 = CIRCLE ( 'NONE', #202, 0.7499999999999975575 ) ;
#77 = APPROVAL_STATUS ( 'not_yet_approved' ) ;
#78 = ORIENTED_EDGE ( 'NONE', *, *, #220, .T. ) ;
#79 = CARTESIAN_POINT ( 'NONE',  ( 0.0000000000000000000, 0.0000000000000000000, 0.0000000000000000000 ) ) ;
#80 = EDGE_LOOP ( 'NONE', ( #197 ) ) ;
#81 = FACE_OUTER_BOUND ( 'NONE', #195, .T. ) ;
#82 = CC_DESIGN_PERSON_AND_ORGANIZATION_ASSIGNMENT ( #54, #131, ( #118 ) ) ;
#83 = DIRECTION ( 'NONE',  ( 3.491481338843133355E-15, -1.224646799147353207E-16, 1.000000000000000000 ) ) ;
#84 =( GEOMETRIC_REPRESENTATION_CONTEXT ( 3 ) GLOBAL_UNCERTAINTY_ASSIGNED_CONTEXT ( ( #35 ) ) GLOBAL_UNIT_ASSIGNED_CONTEXT ( ( #71, #21, #126 ) ) REPRESENTATION_CONTEXT ( 'NONE', 'WORKASPACE' ) );
#85 = DIRECTION ( 'NONE',  ( -4.275831445896958607E-31, -1.000000000000000000, -1.224646799147353207E-16 ) ) ;
#86 = APPLICATION_CONTEXT ( 'configuration controlled 3d designs of mechanical parts and assemblies' ) ;
#87 = CALENDAR_DATE ( 2021, 8, 10 ) ;
#88 = VERTEX_POINT ( 'NONE', #93 ) ;
#89 = ADVANCED_FACE ( 'NONE', ( #123 ), #120, .T. ) ;
#90 = APPROVAL_PERSON_ORGANIZATION ( #23, #162, #174 ) ;
#91 = APPROVAL_STATUS ( 'not_yet_approved' ) ;
#92 = EDGE_CURVE ( 'NONE', #2, #2, #175, .T. ) ;
#93 = CARTESIAN_POINT ( 'NONE',  ( 3.278400224091305821E-14, 0.7499999999999963363, 9.389711431702998823 ) ) ;
#94 = CALENDAR_DATE ( 2021, 8, 10 ) ;
#95 = APPROVAL ( #77, 'UNSPECIFIED' ) ;
#96 = APPROVAL_ROLE ( '' ) ;
#97 = PERSON_AND_ORGANIZATION ( #152, #181 ) ;
#98 = AXIS2_PLACEMENT_3D ( 'NONE', #168, #18, #103 ) ;
#99 = EDGE_LOOP ( 'NONE', ( #121 ) ) ;
#100 = DIRECTION ( 'NONE',  ( 0.0000000000000000000, 1.000000000000000000, 0.0000000000000000000 ) ) ;
#101 = CC_DESIGN_APPROVAL ( #162, ( #119 ) ) ;
#102 = EDGE_LOOP ( 'NONE', ( #139 ) ) ;
#103 = DIRECTION ( 'NONE',  ( 4.275831445896959482E-31, 1.000000000000000000, 1.224646799147353207E-16 ) ) ;
#104 = ORIENTED_EDGE ( 'NONE', *, *, #3, .T. ) ;
#105 = DIRECTION ( 'NONE',  ( -4.275831445896958607E-31, -1.000000000000000000, -1.224646799147353207E-16 ) ) ;
#106 = APPROVAL_PERSON_ORGANIZATION ( #129, #29, #143 ) ;
#107 = DIRECTION ( 'NONE',  ( 0.0000000000000000000, 1.000000000000000000, 0.0000000000000000000 ) ) ;
#108 = DESIGN_CONTEXT ( 'detailed design', #86, 'design' ) ;
#109 = ADVANCED_FACE ( 'NONE', ( #136, #28 ), #22, .T. ) ;
#110 = AXIS2_PLACEMENT_3D ( 'NONE', #79, #65, #145 ) ;
#111 = CARTESIAN_POINT ( 'NONE',  ( 1.047444401652940007E-13, 0.5499999999999963807, 30.00000000000000000 ) ) ;
#112 = EDGE_CURVE ( 'NONE', #37, #37, #185, .T. ) ;
#113 = DIRECTION ( 'NONE',  ( 0.0000000000000000000, 1.000000000000000000, 0.0000000000000000000 ) ) ;
#114 = COORDINATED_UNIVERSAL_TIME_OFFSET ( 1, 0, .AHEAD. ) ;
#115 = AXIS2_PLACEMENT_3D ( 'NONE', #180, #16, #100 ) ;
#116 = SECURITY_CLASSIFICATION_LEVEL ( 'unclassified' ) ;
#117 = APPROVAL_DATE_TIME ( #194, #162 ) ;
#118 = PRODUCT ( '55757', '55757', '', ( #56 ) ) ;
#119 = PRODUCT_DEFINITION_FORMATION_WITH_SPECIFIED_SOURCE ( 'ANY', '', #118, .NOT_KNOWN. ) ;
#120 = CONICAL_SURFACE ( 'NONE', #26, 0.5249999999999990230, 1.047197551196592746 ) ;
#121 = ORIENTED_EDGE ( 'NONE', *, *, #92, .F. ) ;
#122 = DIRECTION ( 'NONE',  ( 3.668437989309027345E-31, 1.000000000000000000, 1.032573497605244196E-16 ) ) ;
#123 = FACE_OUTER_BOUND ( 'NONE', #179, .T. ) ;
#124 = DIRECTION ( 'NONE',  ( 3.491481338843133355E-15, -1.224646799147353207E-16, 1.000000000000000000 ) ) ;
#125 = AXIS2_PLACEMENT_3D ( 'NONE', #17, #199, #203 ) ;
#126 =( NAMED_UNIT ( * ) SI_UNIT ( $, .STERADIAN. ) SOLID_ANGLE_UNIT ( ) );
#127 = EDGE_CURVE ( 'NONE', #208, #208, #53, .T. ) ;
#128 = CARTESIAN_POINT ( 'NONE',  ( 3.142333204958820020E-14, 0.5249999999999990230, 9.000000000000000000 ) ) ;
#129 = PERSON_AND_ORGANIZATION ( #152, #181 ) ;
#130 = AXIS2_PLACEMENT_3D ( 'NONE', #218, #196, #122 ) ;
#131 = PERSON_AND_ORGANIZATION_ROLE ( 'design_owner' ) ;
#132 = ADVANCED_FACE ( 'NONE', ( #81 ), #63, .F. ) ;
#133 = ADVANCED_FACE ( 'NONE', ( #153 ), #204, .F. ) ;
#134 = ORIENTED_EDGE ( 'NONE', *, *, #112, .T. ) ;
#135 = AXIS2_PLACEMENT_3D ( 'NONE', #150, #183, #107 ) ;
#136 = FACE_OUTER_BOUND ( 'NONE', #80, .T. ) ;
#137 = EDGE_LOOP ( 'NONE', ( #66 ) ) ;
#138 = CC_DESIGN_DATE_AND_TIME_ASSIGNMENT ( #206, #170, ( #47 ) ) ;
#139 = ORIENTED_EDGE ( 'NONE', *, *, #3, .F. ) ;
#140 = FACE_OUTER_BOUND ( 'NONE', #99, .T. ) ;
#141 = CARTESIAN_POINT ( 'NONE',  ( 1.047444401652940007E-13, -3.673940397442059178E-15, 30.00000000000000000 ) ) ;
#142 = CARTESIAN_POINT ( 'NONE',  ( 1.047444401652940007E-13, 4.124339402320052999E-33, 30.00000000000000000 ) ) ;
#143 = APPROVAL_ROLE ( '' ) ;
#144 = DIRECTION ( 'NONE',  ( 1.000000000000000000, 0.0000000000000000000, 0.0000000000000000000 ) ) ;
#145 = DIRECTION ( 'NONE',  ( 4.275831445896958607E-31, 1.000000000000000000, 1.224646799147353207E-16 ) ) ;
#146 = DATE_AND_TIME ( #156, #40 ) ;
#147 = DIRECTION ( 'NONE',  ( -3.491481338843133355E-15, 1.224646799147353207E-16, -1.000000000000000000 ) ) ;
#148 = CC_DESIGN_SECURITY_CLASSIFICATION ( #212, ( #119 ) ) ;
#149 = CARTESIAN_POINT ( 'NONE',  ( 3.278400224091305821E-14, -1.149908004975238788E-15, 9.389711431702998823 ) ) ;
#150 = CARTESIAN_POINT ( 'NONE',  ( 3.142333204958820020E-14, -1.102182119232617714E-15, 9.000000000000000000 ) ) ;
#151 = FACE_BOUND ( 'NONE', #102, .T. ) ;
#152 = PERSON ( 'UNSPECIFIED', 'UNSPECIFIED', 'UNSPECIFIED', ('UNSPECIFIED'), ('UNSPECIFIED'), ('UNSPECIFIED') ) ;
#153 = FACE_OUTER_BOUND ( 'NONE', #46, .T. ) ;
#154 = CC_DESIGN_PERSON_AND_ORGANIZATION_ASSIGNMENT ( #163, #191, ( #212 ) ) ;
#155 = APPROVAL_STATUS ( 'not_yet_approved' ) ;
#156 = CALENDAR_DATE ( 2021, 8, 10 ) ;
#157 = CARTESIAN_POINT ( 'NONE',  ( 1.058299037697120203E-15, 0.5249999999999990230, 0.3031088913245564287 ) ) ;
#158 = MANIFOLD_SOLID_BREP ( 'Corps-Déplacer/Copier1[2]', #201 ) ;
#159 = PERSON_AND_ORGANIZATION ( #152, #181 ) ;
#160 = COORDINATED_UNIVERSAL_TIME_OFFSET ( 1, 0, .AHEAD. ) ;
#161 = ADVANCED_BREP_SHAPE_REPRESENTATION ( '55757', ( #59, #158, #58 ), #84 ) ;
#162 = APPROVAL ( #91, 'UNSPECIFIED' ) ;
#163 = PERSON_AND_ORGANIZATION ( #152, #181 ) ;
#164 = ORIENTED_EDGE ( 'NONE', *, *, #14, .T. ) ;
#165 = DIRECTION ( 'NONE',  ( -3.491481338843133355E-15, 1.224646799147353207E-16, -1.000000000000000000 ) ) ;
#166 = FACE_OUTER_BOUND ( 'NONE', #10, .T. ) ;
#167 = DIRECTION ( 'NONE',  ( -3.491481338843133355E-15, 1.224646799147353207E-16, -1.000000000000000000 ) ) ;
#168 = CARTESIAN_POINT ( 'NONE',  ( 0.0000000000000000000, 0.0000000000000000000, 0.0000000000000000000 ) ) ;
#169 = EDGE_LOOP ( 'NONE', ( #164 ) ) ;
#170 = DATE_TIME_ROLE ( 'creation_date' ) ;
#171 = PERSON_AND_ORGANIZATION ( #152, #181 ) ;
#172 = COORDINATED_UNIVERSAL_TIME_OFFSET ( 1, 0, .AHEAD. ) ;
#173 = APPROVAL_PERSON_ORGANIZATION ( #97, #95, #96 ) ;
#174 = APPROVAL_ROLE ( '' ) ;
#175 = CIRCLE ( 'NONE', #130, 0.5249999999999990230 ) ;
#176 = CC_DESIGN_PERSON_AND_ORGANIZATION_ASSIGNMENT ( #41, #177, ( #119 ) ) ;
#177 = PERSON_AND_ORGANIZATION_ROLE ( 'creator' ) ;
#178 = AXIS2_PLACEMENT_3D ( 'NONE', #142, #167, #223 ) ;
#179 = EDGE_LOOP ( 'NONE', ( #219 ) ) ;
#180 = CARTESIAN_POINT ( 'NONE',  ( 3.142333204958820020E-14, -1.102182119232617714E-15, 9.000000000000000000 ) ) ;
#181 = ORGANIZATION ( 'UNSPECIFIED', 'UNSPECIFIED', '' ) ;
#182 = DIRECTION ( 'NONE',  ( -3.668437989309027345E-31, -1.000000000000000000, -1.032573497605244196E-16 ) ) ;
#183 = DIRECTION ( 'NONE',  ( -3.491481338843133355E-15, 1.224646799147353207E-16, -1.000000000000000000 ) ) ;
#184 = VERTEX_POINT ( 'NONE', #20 ) ;
#185 = CIRCLE ( 'NONE', #115, 0.5250000000000000222 ) ;
#186 = DIRECTION ( 'NONE',  ( 0.0000000000000000000, 0.0000000000000000000, 1.000000000000000000 ) ) ;
#187 = APPLICATION_CONTEXT ( 'configuration controlled 3d designs of mechanical parts and assemblies' ) ;
#188 = APPLICATION_PROTOCOL_DEFINITION ( 'international standard', 'config_control_design', 1994, #187 ) ;
#189 = CC_DESIGN_DATE_AND_TIME_ASSIGNMENT ( #60, #193, ( #212 ) ) ;
#190 = PERSON_AND_ORGANIZATION_ROLE ( 'creator' ) ;
#191 = PERSON_AND_ORGANIZATION_ROLE ( 'classification_officer' ) ;
#192 = LOCAL_TIME ( 10, 11, 38.00000000000000000, #114 ) ;
#193 = DATE_TIME_ROLE ( 'classification_date' ) ;
#194 = DATE_AND_TIME ( #94, #192 ) ;
#195 = EDGE_LOOP ( 'NONE', ( #44 ) ) ;
#196 = DIRECTION ( 'NONE',  ( -3.491481338843133355E-15, 1.224646799147353207E-16, -1.000000000000000000 ) ) ;
#197 = ORIENTED_EDGE ( 'NONE', *, *, #220, .F. ) ;
#198 = DIRECTION ( 'NONE',  ( 0.0000000000000000000, 1.000000000000000000, 0.0000000000000000000 ) ) ;
#199 = DIRECTION ( 'NONE',  ( 3.491481338843133355E-15, -1.224646799147353207E-16, 1.000000000000000000 ) ) ;
#200 = ADVANCED_FACE ( 'NONE', ( #151, #30 ), #25, .T. ) ;
#201 = CLOSED_SHELL ( 'NONE', ( #89, #207, #64 ) ) ;
#202 = AXIS2_PLACEMENT_3D ( 'NONE', #149, #32, #198 ) ;
#203 = DIRECTION ( 'NONE',  ( 0.0000000000000000000, -1.000000000000000000, 0.0000000000000000000 ) ) ;
#204 = PLANE ( 'NONE',  #205 ) ;
#205 = AXIS2_PLACEMENT_3D ( 'NONE', #45, #83, #105 ) ;
#206 = DATE_AND_TIME ( #87, #72 ) ;
#207 = ADVANCED_FACE ( 'NONE', ( #140, #13 ), #221, .T. ) ;
#208 = VERTEX_POINT ( 'NONE', #111 ) ;
#209 = CARTESIAN_POINT ( 'NONE',  ( 0.0000000000000000000, 0.0000000000000000000, 0.0000000000000000000 ) ) ;
#210 = APPROVAL_DATE_TIME ( #146, #29 ) ;
#211 = CC_DESIGN_PERSON_AND_ORGANIZATION_ASSIGNMENT ( #171, #190, ( #47 ) ) ;
#212 = SECURITY_CLASSIFICATION ( '', '', #116 ) ;
#213 = DATE_AND_TIME ( #214, #55 ) ;
#214 = CALENDAR_DATE ( 2021, 8, 10 ) ;
#215 = AXIS2_PLACEMENT_3D ( 'NONE', #51, #68, #70 ) ;
#216 = EDGE_LOOP ( 'NONE', ( #134 ) ) ;
#217 = ORIENTED_EDGE ( 'NONE', *, *, #14, .F. ) ;
#218 = CARTESIAN_POINT ( 'NONE',  ( 1.058299037697120006E-15, -3.712013335537209208E-17, 0.3031088913245563732 ) ) ;
#219 = ORIENTED_EDGE ( 'NONE', *, *, #92, .T. ) ;
#220 = EDGE_CURVE ( 'NONE', #74, #74, #33, .T. ) ;
#221 = CYLINDRICAL_SURFACE ( 'NONE', #110, 0.5249999999999995781 ) ;
#222 = AXIS2_PLACEMENT_3D ( 'NONE', #141, #165, #34 ) ;
#223 = DIRECTION ( 'NONE',  ( 4.275831445896958607E-31, 1.000000000000000000, 1.224646799147353207E-16 ) ) ;
ENDSEC;
END-ISO-10303-21;
