ISO-10303-21;
HEADER;
FILE_DESCRIPTION (( 'STEP AP203' ),
    '1' );
FILE_NAME ('55691.step',
    '2021-10-08T08:11:37',
    ( '' ),
    ( '' ),
    'SwSTEP 2.0',
    'SolidWorks 2019',
    '' );
FILE_SCHEMA (( 'CONFIG_CONTROL_DESIGN' ));
ENDSEC;

DATA;
#1 = AXIS2_PLACEMENT_3D ( 'NONE', #42, #191, #23 ) ;
#2 = APPLICATION_PROTOCOL_DEFINITION ( 'international standard', 'config_control_design', 1994, #24 ) ;
#3 = DIRECTION ( 'NONE',  ( -3.491481338843133355E-15, 1.224646799147353207E-16, -1.000000000000000000 ) ) ;
#4 = AXIS2_PLACEMENT_3D ( 'NONE', #184, #15, #31 ) ;
#5 = PERSON_AND_ORGANIZATION_ROLE ( 'creator' ) ;
#6 = CC_DESIGN_PERSON_AND_ORGANIZATION_ASSIGNMENT ( #192, #212, ( #181 ) ) ;
#7 = CALENDAR_DATE ( 2021, 8, 10 ) ;
#8 = CLOSED_SHELL ( 'NONE', ( #193, #203, #120 ) ) ;
#9 = CC_DESIGN_SECURITY_CLASSIFICATION ( #52, ( #43 ) ) ;
#10 = DIRECTION ( 'NONE',  ( 0.0000000000000000000, 1.000000000000000000, 0.0000000000000000000 ) ) ;
#11 = CARTESIAN_POINT ( 'NONE',  ( 1.047444401652940007E-13, 0.5499999999999963807, 30.00000000000000000 ) ) ;
#12 = VERTEX_POINT ( 'NONE', #11 ) ;
#13 =( GEOMETRIC_REPRESENTATION_CONTEXT ( 3 ) GLOBAL_UNCERTAINTY_ASSIGNED_CONTEXT ( ( #54 ) ) GLOBAL_UNIT_ASSIGNED_CONTEXT ( ( #118, #155, #22 ) ) REPRESENTATION_CONTEXT ( 'NONE', 'WORKASPACE' ) );
#14 = APPLICATION_CONTEXT ( 'configuration controlled 3d designs of mechanical parts and assemblies' ) ;
#15 = DIRECTION ( 'NONE',  ( -3.491481338843133355E-15, 1.224646799147353207E-16, -1.000000000000000000 ) ) ;
#16 = ORGANIZATION ( 'UNSPECIFIED', 'UNSPECIFIED', '' ) ;
#17 = EDGE_LOOP ( 'NONE', ( #137 ) ) ;
#18 = CARTESIAN_POINT ( 'NONE',  ( 3.142333204958820651E-14, -2.086929557694220523E-31, 9.000000000000001776 ) ) ;
#19 = EDGE_LOOP ( 'NONE', ( #86 ) ) ;
#20 = VERTEX_POINT ( 'NONE', #169 ) ;
#21 = DIRECTION ( 'NONE',  ( -3.491481338843133355E-15, 1.224646799147353207E-16, -1.000000000000000000 ) ) ;
#22 =( NAMED_UNIT ( * ) SI_UNIT ( $, .STERADIAN. ) SOLID_ANGLE_UNIT ( ) );
#23 = DIRECTION ( 'NONE',  ( 0.0000000000000000000, -1.000000000000000000, 0.0000000000000000000 ) ) ;
#24 = APPLICATION_CONTEXT ( 'configuration controlled 3d designs of mechanical parts and assemblies' ) ;
#25 = CARTESIAN_POINT ( 'NONE',  ( 0.0000000000000000000, 0.0000000000000000000, 0.0000000000000000000 ) ) ;
#26 = SECURITY_CLASSIFICATION_LEVEL ( 'unclassified' ) ;
#27 = AXIS2_PLACEMENT_3D ( 'NONE', #18, #220, #207 ) ;
#28 = DATE_AND_TIME ( #7, #215 ) ;
#29 = CALENDAR_DATE ( 2021, 8, 10 ) ;
#30 = CC_DESIGN_DATE_AND_TIME_ASSIGNMENT ( #147, #142, ( #52 ) ) ;
#31 = DIRECTION ( 'NONE',  ( 4.275831445896958607E-31, 1.000000000000000000, 1.224646799147353207E-16 ) ) ;
#32 = CC_DESIGN_PERSON_AND_ORGANIZATION_ASSIGNMENT ( #140, #5, ( #43 ) ) ;
#33 = EDGE_LOOP ( 'NONE', ( #153 ) ) ;
#34 = AXIS2_PLACEMENT_3D ( 'NONE', #50, #71, #144 ) ;
#35 = EDGE_LOOP ( 'NONE', ( #185 ) ) ;
#36 = ORIENTED_EDGE ( 'NONE', *, *, #218, .T. ) ;
#37 = EDGE_CURVE ( 'NONE', #65, #65, #122, .T. ) ;
#38 = DIRECTION ( 'NONE',  ( 0.0000000000000000000, 1.000000000000000000, 0.0000000000000000000 ) ) ;
#39 = AXIS2_PLACEMENT_3D ( 'NONE', #72, #166, #82 ) ;
#40 = COORDINATED_UNIVERSAL_TIME_OFFSET ( 1, 0, .AHEAD. ) ;
#41 = APPROVAL_ROLE ( '' ) ;
#42 = CARTESIAN_POINT ( 'NONE',  ( 3.293518781772692712E-14, -1.155210881168863023E-15, 9.433012701892218743 ) ) ;
#43 = PRODUCT_DEFINITION_FORMATION_WITH_SPECIFIED_SOURCE ( 'ANY', '', #181, .NOT_KNOWN. ) ;
#44 = PERSON_AND_ORGANIZATION_ROLE ( 'classification_officer' ) ;
#45 = DIRECTION ( 'NONE',  ( 0.0000000000000000000, 1.000000000000000000, 0.0000000000000000000 ) ) ;
#46 = CARTESIAN_POINT ( 'NONE',  ( 0.0000000000000000000, 0.0000000000000000000, 0.0000000000000000000 ) ) ;
#47 = CC_DESIGN_PERSON_AND_ORGANIZATION_ASSIGNMENT ( #173, #214, ( #43 ) ) ;
#48 = ORIENTED_EDGE ( 'NONE', *, *, #94, .F. ) ;
#49 = APPROVAL ( #194, 'UNSPECIFIED' ) ;
#50 = CARTESIAN_POINT ( 'NONE',  ( 0.0000000000000000000, 0.0000000000000000000, 0.0000000000000000000 ) ) ;
#51 = EDGE_LOOP ( 'NONE', ( #84 ) ) ;
#52 = SECURITY_CLASSIFICATION ( '', '', #26 ) ;
#53 = EDGE_LOOP ( 'NONE', ( #36 ) ) ;
#54 = UNCERTAINTY_MEASURE_WITH_UNIT (LENGTH_MEASURE( 1.000000000000000082E-05 ), #118, 'distance_accuracy_value', 'NONE');
#55 = DIRECTION ( 'NONE',  ( 0.0000000000000000000, 0.0000000000000000000, 1.000000000000000000 ) ) ;
#56 = CARTESIAN_POINT ( 'NONE',  ( 1.047444401652940007E-13, -3.673940397442059178E-15, 30.00000000000000000 ) ) ;
#57 = AXIS2_PLACEMENT_3D ( 'NONE', #25, #55, #116 ) ;
#58 = PERSON_AND_ORGANIZATION ( #172, #16 ) ;
#59 = PERSON_AND_ORGANIZATION_ROLE ( 'creator' ) ;
#60 = COORDINATED_UNIVERSAL_TIME_OFFSET ( 1, 0, .AHEAD. ) ;
#61 = AXIS2_PLACEMENT_3D ( 'NONE', #152, #70, #135 ) ;
#62 = CALENDAR_DATE ( 2021, 8, 10 ) ;
#63 = PRODUCT_DEFINITION ( 'UNKNOWN', '', #43, #75 ) ;
#64 = DIRECTION ( 'NONE',  ( 0.0000000000000000000, 1.000000000000000000, 0.0000000000000000000 ) ) ;
#65 = VERTEX_POINT ( 'NONE', #178 ) ;
#66 = SHAPE_DEFINITION_REPRESENTATION ( #162, #68 ) ;
#67 = AXIS2_PLACEMENT_3D ( 'NONE', #100, #3, #74 ) ;
#68 = ADVANCED_BREP_SHAPE_REPRESENTATION ( '55691', ( #199, #208, #57 ), #13 ) ;
#69 = APPROVAL ( #93, 'UNSPECIFIED' ) ;
#70 = DIRECTION ( 'NONE',  ( -3.491481338843133355E-15, 1.224646799147353207E-16, -1.000000000000000000 ) ) ;
#71 = DIRECTION ( 'NONE',  ( -3.491481338843133355E-15, 1.224646799147353207E-16, -1.000000000000000000 ) ) ;
#72 = CARTESIAN_POINT ( 'NONE',  ( 3.142333204958820651E-14, -2.086929557694220523E-31, 9.000000000000001776 ) ) ;
#73 = LOCAL_TIME ( 10, 11, 37.00000000000000000, #60 ) ;
#74 = DIRECTION ( 'NONE',  ( 0.0000000000000000000, 1.000000000000000000, 0.0000000000000000000 ) ) ;
#75 = DESIGN_CONTEXT ( 'detailed design', #14, 'design' ) ;
#76 = CC_DESIGN_APPROVAL ( #49, ( #63 ) ) ;
#77 = DATE_AND_TIME ( #29, #89 ) ;
#78 = CIRCLE ( 'NONE', #83, 0.5500000000000000444 ) ;
#79 = COORDINATED_UNIVERSAL_TIME_OFFSET ( 1, 0, .AHEAD. ) ;
#80 = AXIS2_PLACEMENT_3D ( 'NONE', #46, #195, #96 ) ;
#81 = LOCAL_TIME ( 10, 11, 37.00000000000000000, #79 ) ;
#82 = DIRECTION ( 'NONE',  ( -4.275831445896958607E-31, -1.000000000000000000, -1.224646799147353207E-16 ) ) ;
#83 = AXIS2_PLACEMENT_3D ( 'NONE', #56, #189, #38 ) ;
#84 = ORIENTED_EDGE ( 'NONE', *, *, #218, .F. ) ;
#85 = ADVANCED_FACE ( 'NONE', ( #101 ), #168, .F. ) ;
#86 = ORIENTED_EDGE ( 'NONE', *, *, #37, .T. ) ;
#87 = VERTEX_POINT ( 'NONE', #158 ) ;
#88 = ORIENTED_EDGE ( 'NONE', *, *, #221, .F. ) ;
#89 = LOCAL_TIME ( 10, 11, 37.00000000000000000, #40 ) ;
#90 = FACE_OUTER_BOUND ( 'NONE', #35, .T. ) ;
#91 = AXIS2_PLACEMENT_3D ( 'NONE', #127, #198, #111 ) ;
#92 = APPROVAL_DATE_TIME ( #77, #49 ) ;
#93 = APPROVAL_STATUS ( 'not_yet_approved' ) ;
#94 = EDGE_CURVE ( 'NONE', #12, #12, #78, .T. ) ;
#95 = APPROVAL_DATE_TIME ( #180, #216 ) ;
#96 = DIRECTION ( 'NONE',  ( 4.275831445896958607E-31, 1.000000000000000000, 1.224646799147353454E-16 ) ) ;
#97 = EDGE_CURVE ( 'NONE', #148, #148, #196, .T. ) ;
#98 = FACE_OUTER_BOUND ( 'NONE', #170, .T. ) ;
#99 = ORIENTED_EDGE ( 'NONE', *, *, #132, .T. ) ;
#100 = CARTESIAN_POINT ( 'NONE',  ( 1.040461438975253740E-13, -3.649447461459112464E-15, 29.80000000000000071 ) ) ;
#101 = FACE_OUTER_BOUND ( 'NONE', #33, .T. ) ;
#102 = CARTESIAN_POINT ( 'NONE',  ( 1.007903845425828859E-15, -3.535250795749724640E-17, 0.2886751345948156966 ) ) ;
#103 = APPROVAL_ROLE ( '' ) ;
#104 = CC_DESIGN_PERSON_AND_ORGANIZATION_ASSIGNMENT ( #174, #44, ( #52 ) ) ;
#105 = COORDINATED_UNIVERSAL_TIME_OFFSET ( 1, 0, .AHEAD. ) ;
#106 = CALENDAR_DATE ( 2021, 8, 10 ) ;
#107 = FACE_OUTER_BOUND ( 'NONE', #53, .T. ) ;
#108 = APPROVAL_ROLE ( '' ) ;
#109 = DIRECTION ( 'NONE',  ( -3.491481338843133355E-15, 1.224646799147353207E-16, -1.000000000000000000 ) ) ;
#110 = FACE_OUTER_BOUND ( 'NONE', #156, .T. ) ;
#111 = DIRECTION ( 'NONE',  ( -3.851859888774478275E-31, -1.000000000000000000, -1.084202172485506283E-16 ) ) ;
#112 = DIRECTION ( 'NONE',  ( -3.491481338843133355E-15, 1.224646799147353207E-16, -1.000000000000000000 ) ) ;
#113 = PLANE ( 'NONE',  #4 ) ;
#114 = CALENDAR_DATE ( 2021, 8, 10 ) ;
#115 = ORIENTED_EDGE ( 'NONE', *, *, #97, .T. ) ;
#116 = DIRECTION ( 'NONE',  ( 1.000000000000000000, 0.0000000000000000000, 0.0000000000000000000 ) ) ;
#117 = ADVANCED_FACE ( 'NONE', ( #133 ), #113, .F. ) ;
#118 =( LENGTH_UNIT ( ) NAMED_UNIT ( * ) SI_UNIT ( .MILLI., .METRE. ) );
#119 = PERSON_AND_ORGANIZATION ( #172, #16 ) ;
#120 = ADVANCED_FACE ( 'NONE', ( #98 ), #154, .T. ) ;
#121 = APPLICATION_PROTOCOL_DEFINITION ( 'international standard', 'config_control_design', 1994, #14 ) ;
#122 = CIRCLE ( 'NONE', #67, 0.7500000000000000000 ) ;
#123 = PERSON_AND_ORGANIZATION ( #172, #16 ) ;
#124 = LOCAL_TIME ( 10, 11, 37.00000000000000000, #213 ) ;
#125 = FACE_OUTER_BOUND ( 'NONE', #167, .T. ) ;
#126 = APPROVAL_STATUS ( 'not_yet_approved' ) ;
#127 = CARTESIAN_POINT ( 'NONE',  ( 1.007903845425828859E-15, -3.535250795749724640E-17, 0.2886751345948156966 ) ) ;
#128 = CC_DESIGN_DATE_AND_TIME_ASSIGNMENT ( #28, #159, ( #63 ) ) ;
#129 = CARTESIAN_POINT ( 'NONE',  ( 3.293518781772692712E-14, -1.155210881168863023E-15, 9.433012701892218743 ) ) ;
#130 = AXIS2_PLACEMENT_3D ( 'NONE', #102, #21, #131 ) ;
#131 = DIRECTION ( 'NONE',  ( 3.851859888774478275E-31, 1.000000000000000000, 1.084202172485506283E-16 ) ) ;
#132 = EDGE_CURVE ( 'NONE', #20, #20, #171, .T. ) ;
#133 = FACE_OUTER_BOUND ( 'NONE', #200, .T. ) ;
#134 = ORIENTED_EDGE ( 'NONE', *, *, #94, .T. ) ;
#135 = DIRECTION ( 'NONE',  ( 0.0000000000000000000, 1.000000000000000000, 0.0000000000000000000 ) ) ;
#136 = CARTESIAN_POINT ( 'NONE',  ( 1.007903845425829056E-15, 0.4999999999999991673, 0.2886751345948157521 ) ) ;
#137 = ORIENTED_EDGE ( 'NONE', *, *, #97, .F. ) ;
#138 = ADVANCED_FACE ( 'NONE', ( #201, #206 ), #202, .T. ) ;
#139 = CLOSED_SHELL ( 'NONE', ( #85, #163, #138, #179, #117 ) ) ;
#140 = PERSON_AND_ORGANIZATION ( #172, #16 ) ;
#141 = FACE_BOUND ( 'NONE', #222, .T. ) ;
#142 = DATE_TIME_ROLE ( 'classification_date' ) ;
#143 = DATE_AND_TIME ( #106, #73 ) ;
#144 = DIRECTION ( 'NONE',  ( 4.275831445896959482E-31, 1.000000000000000000, 1.224646799147353207E-16 ) ) ;
#145 = CC_DESIGN_APPROVAL ( #69, ( #43 ) ) ;
#146 = CC_DESIGN_PERSON_AND_ORGANIZATION_ASSIGNMENT ( #123, #59, ( #63 ) ) ;
#147 = DATE_AND_TIME ( #62, #81 ) ;
#148 = VERTEX_POINT ( 'NONE', #136 ) ;
#149 = PERSON_AND_ORGANIZATION ( #172, #16 ) ;
#150 = CIRCLE ( 'NONE', #219, 0.7499999999999975575 ) ;
#151 = CIRCLE ( 'NONE', #204, 0.5000000000000015543 ) ;
#152 = CARTESIAN_POINT ( 'NONE',  ( 3.142333204958820651E-14, -1.102182119232617911E-15, 9.000000000000001776 ) ) ;
#153 = ORIENTED_EDGE ( 'NONE', *, *, #221, .T. ) ;
#154 = PLANE ( 'NONE',  #39 ) ;
#155 =( NAMED_UNIT ( * ) PLANE_ANGLE_UNIT ( ) SI_UNIT ( $, .RADIAN. ) );
#156 = EDGE_LOOP ( 'NONE', ( #115 ) ) ;
#157 = AXIS2_PLACEMENT_3D ( 'NONE', #175, #112, #64 ) ;
#158 = CARTESIAN_POINT ( 'NONE',  ( 3.142333204958820651E-14, 0.5000000000000004441, 9.000000000000001776 ) ) ;
#159 = DATE_TIME_ROLE ( 'creation_date' ) ;
#160 = APPROVAL_DATE_TIME ( #143, #69 ) ;
#161 = CYLINDRICAL_SURFACE ( 'NONE', #80, 0.5000000000000003331 ) ;
#162 = PRODUCT_DEFINITION_SHAPE ( 'NONE', 'NONE',  #63 ) ;
#163 = ADVANCED_FACE ( 'NONE', ( #141, #107 ), #176, .T. ) ;
#164 = APPROVAL_PERSON_ORGANIZATION ( #58, #69, #103 ) ;
#165 = CARTESIAN_POINT ( 'NONE',  ( 3.142333204958820651E-14, -1.102182119232617911E-15, 9.000000000000001776 ) ) ;
#166 = DIRECTION ( 'NONE',  ( 3.491481338843133355E-15, -1.224646799147353207E-16, 1.000000000000000000 ) ) ;
#167 = EDGE_LOOP ( 'NONE', ( #99 ) ) ;
#168 = PLANE ( 'NONE',  #27 ) ;
#169 = CARTESIAN_POINT ( 'NONE',  ( 3.142333204958820651E-14, 0.5000000000000004441, 9.000000000000001776 ) ) ;
#170 = EDGE_LOOP ( 'NONE', ( #223 ) ) ;
#171 = CIRCLE ( 'NONE', #61, 0.5000000000000015543 ) ;
#172 = PERSON ( 'UNSPECIFIED', 'UNSPECIFIED', 'UNSPECIFIED', ('UNSPECIFIED'), ('UNSPECIFIED'), ('UNSPECIFIED') ) ;
#173 = PERSON_AND_ORGANIZATION ( #172, #16 ) ;
#174 = PERSON_AND_ORGANIZATION ( #172, #16 ) ;
#175 = CARTESIAN_POINT ( 'NONE',  ( 1.047444401652940007E-13, -3.673940397442059178E-15, 30.00000000000000000 ) ) ;
#176 = CONICAL_SURFACE ( 'NONE', #1, 0.7499999999999975575, 0.5235987755982932645 ) ;
#177 = CC_DESIGN_APPROVAL ( #216, ( #52 ) ) ;
#178 = CARTESIAN_POINT ( 'NONE',  ( 1.040461438975253740E-13, 0.7499999999999963363, 29.80000000000000071 ) ) ;
#179 = ADVANCED_FACE ( 'NONE', ( #90, #197 ), #186, .T. ) ;
#180 = DATE_AND_TIME ( #114, #124 ) ;
#181 = PRODUCT ( '55691', '55691', '', ( #188 ) ) ;
#182 = APPROVAL_PERSON_ORGANIZATION ( #119, #49, #41 ) ;
#183 = FACE_OUTER_BOUND ( 'NONE', #17, .T. ) ;
#184 = CARTESIAN_POINT ( 'NONE',  ( 1.047444401652940007E-13, 4.124339402320052999E-33, 30.00000000000000000 ) ) ;
#185 = ORIENTED_EDGE ( 'NONE', *, *, #37, .F. ) ;
#186 = CONICAL_SURFACE ( 'NONE', #157, 0.5500000000000000444, 0.7853981633974512766 ) ;
#187 = EDGE_LOOP ( 'NONE', ( #134 ) ) ;
#188 = MECHANICAL_CONTEXT ( 'NONE', #24, 'mechanical' ) ;
#189 = DIRECTION ( 'NONE',  ( -3.491481338843133355E-15, 1.224646799147353207E-16, -1.000000000000000000 ) ) ;
#190 = VERTEX_POINT ( 'NONE', #209 ) ;
#191 = DIRECTION ( 'NONE',  ( 3.491481338843133355E-15, -1.224646799147353207E-16, 1.000000000000000000 ) ) ;
#192 = PERSON_AND_ORGANIZATION ( #172, #16 ) ;
#193 = ADVANCED_FACE ( 'NONE', ( #110 ), #211, .T. ) ;
#194 = APPROVAL_STATUS ( 'not_yet_approved' ) ;
#195 = DIRECTION ( 'NONE',  ( -3.491481338843133355E-15, 1.224646799147353207E-16, -1.000000000000000000 ) ) ;
#196 = CIRCLE ( 'NONE', #130, 0.4999999999999991673 ) ;
#197 = FACE_BOUND ( 'NONE', #187, .T. ) ;
#198 = DIRECTION ( 'NONE',  ( 3.491481338843133355E-15, -1.224646799147353207E-16, 1.000000000000000000 ) ) ;
#199 = MANIFOLD_SOLID_BREP ( 'Corps-Déplacer/Copier1[1]', #139 ) ;
#200 = EDGE_LOOP ( 'NONE', ( #48 ) ) ;
#201 = FACE_OUTER_BOUND ( 'NONE', #51, .T. ) ;
#202 = CYLINDRICAL_SURFACE ( 'NONE', #34, 0.7499999999999986677 ) ;
#203 = ADVANCED_FACE ( 'NONE', ( #183, #125 ), #161, .T. ) ;
#204 = AXIS2_PLACEMENT_3D ( 'NONE', #165, #109, #10 ) ;
#205 = APPROVAL_PERSON_ORGANIZATION ( #149, #216, #108 ) ;
#206 = FACE_OUTER_BOUND ( 'NONE', #19, .T. ) ;
#207 = DIRECTION ( 'NONE',  ( -4.275831445896958607E-31, -1.000000000000000000, -1.224646799147353207E-16 ) ) ;
#208 = MANIFOLD_SOLID_BREP ( 'Corps-Déplacer/Copier1[2]', #8 ) ;
#209 = CARTESIAN_POINT ( 'NONE',  ( 3.293518781772692712E-14, 0.7499999999999963363, 9.433012701892218743 ) ) ;
#210 = PRODUCT_RELATED_PRODUCT_CATEGORY ( 'detail', '', ( #181 ) ) ;
#211 = CONICAL_SURFACE ( 'NONE', #91, 0.4999999999999991673, 1.047197551196592746 ) ;
#212 = PERSON_AND_ORGANIZATION_ROLE ( 'design_owner' ) ;
#213 = COORDINATED_UNIVERSAL_TIME_OFFSET ( 1, 0, .AHEAD. ) ;
#214 = PERSON_AND_ORGANIZATION_ROLE ( 'design_supplier' ) ;
#215 = LOCAL_TIME ( 10, 11, 37.00000000000000000, #105 ) ;
#216 = APPROVAL ( #126, 'UNSPECIFIED' ) ;
#217 = DIRECTION ( 'NONE',  ( -3.491481338843133355E-15, 1.224646799147353207E-16, -1.000000000000000000 ) ) ;
#218 = EDGE_CURVE ( 'NONE', #190, #190, #150, .T. ) ;
#219 = AXIS2_PLACEMENT_3D ( 'NONE', #129, #217, #45 ) ;
#220 = DIRECTION ( 'NONE',  ( 3.491481338843133355E-15, -1.224646799147353207E-16, 1.000000000000000000 ) ) ;
#221 = EDGE_CURVE ( 'NONE', #87, #87, #151, .T. ) ;
#222 = EDGE_LOOP ( 'NONE', ( #88 ) ) ;
#223 = ORIENTED_EDGE ( 'NONE', *, *, #132, .F. ) ;
ENDSEC;
END-ISO-10303-21;
