ISO-10303-21;
HEADER;
FILE_DESCRIPTION (( 'STEP AP203' ),
    '1' );
FILE_NAME ('55689.step',
    '2021-10-08T08:11:36',
    ( '' ),
    ( '' ),
    'SwSTEP 2.0',
    'SolidWorks 2019',
    '' );
FILE_SCHEMA (( 'CONFIG_CONTROL_DESIGN' ));
ENDSEC;

DATA;
#1 = PERSON_AND_ORGANIZATION_ROLE ( 'design_owner' ) ;
#2 = AXIS2_PLACEMENT_3D ( 'NONE', #206, #85, #221 ) ;
#3 = EDGE_LOOP ( 'NONE', ( #74 ) ) ;
#4 = APPLICATION_CONTEXT ( 'configuration controlled 3d designs of mechanical parts and assemblies' ) ;
#5 = CONICAL_SURFACE ( 'NONE', #29, 0.6500000000000000222, 0.7853981633974516097 ) ;
#6 =( NAMED_UNIT ( * ) SI_UNIT ( $, .STERADIAN. ) SOLID_ANGLE_UNIT ( ) );
#7 = APPROVAL ( #10, 'UNSPECIFIED' ) ;
#8 = APPROVAL_STATUS ( 'not_yet_approved' ) ;
#9 = DATE_TIME_ROLE ( 'creation_date' ) ;
#10 = APPROVAL_STATUS ( 'not_yet_approved' ) ;
#11 = FACE_OUTER_BOUND ( 'NONE', #161, .T. ) ;
#12 = APPROVAL_ROLE ( '' ) ;
#13 = DIRECTION ( 'NONE',  ( 4.275831445896958607E-31, 1.000000000000000000, 1.224646799147353207E-16 ) ) ;
#14 = COORDINATED_UNIVERSAL_TIME_OFFSET ( 1, 0, .AHEAD. ) ;
#15 = CARTESIAN_POINT ( 'NONE',  ( 2.645255885073885211E-14, -9.278308655244909101E-16, 7.576313972081442749 ) ) ;
#16 = SECURITY_CLASSIFICATION ( '', '', #78 ) ;
#17 = VERTEX_POINT ( 'NONE', #166 ) ;
#18 = MANIFOLD_SOLID_BREP ( 'Corps-Déplacer/Copier1[1]', #130 ) ;
#19 = DIRECTION ( 'NONE',  ( -4.054589356604713697E-31, -1.000000000000000000, -1.141265444721585483E-16 ) ) ;
#20 = MANIFOLD_SOLID_BREP ( 'Corps-Déplacer/Copier1[2]', #54 ) ;
#21 = PERSON ( 'UNSPECIFIED', 'UNSPECIFIED', 'UNSPECIFIED', ('UNSPECIFIED'), ('UNSPECIFIED'), ('UNSPECIFIED') ) ;
#22 = ADVANCED_FACE ( 'NONE', ( #63, #124 ), #192, .T. ) ;
#23 = LOCAL_TIME ( 10, 11, 36.00000000000000000, #82 ) ;
#24 = VERTEX_POINT ( 'NONE', #88 ) ;
#25 = EDGE_LOOP ( 'NONE', ( #179 ) ) ;
#26 = AXIS2_PLACEMENT_3D ( 'NONE', #189, #84, #56 ) ;
#27 = DIRECTION ( 'NONE',  ( -3.491481338843133355E-15, 1.224646799147353207E-16, -1.000000000000000000 ) ) ;
#28 = FACE_OUTER_BOUND ( 'NONE', #180, .T. ) ;
#29 = AXIS2_PLACEMENT_3D ( 'NONE', #205, #52, #116 ) ;
#30 = PRODUCT ( '55689', '55689', '', ( #64 ) ) ;
#31 = LOCAL_TIME ( 10, 11, 36.00000000000000000, #14 ) ;
#32 = APPROVAL_ROLE ( '' ) ;
#33 = PERSON_AND_ORGANIZATION ( #21, #50 ) ;
#34 = ADVANCED_FACE ( 'NONE', ( #28 ), #150, .F. ) ;
#35 = AXIS2_PLACEMENT_3D ( 'NONE', #117, #99, #66 ) ;
#36 = DIRECTION ( 'NONE',  ( 3.491481338843133355E-15, -1.224646799147353207E-16, 1.000000000000000000 ) ) ;
#37 = CC_DESIGN_PERSON_AND_ORGANIZATION_ASSIGNMENT ( #97, #214, ( #16 ) ) ;
#38 = ORIENTED_EDGE ( 'NONE', *, *, #107, .T. ) ;
#39 = CARTESIAN_POINT ( 'NONE',  ( 2.478951750578624367E-14, 0.4749999999999988676, 7.099999999999999645 ) ) ;
#40 = EDGE_LOOP ( 'NONE', ( #86 ) ) ;
#41 = APPROVAL ( #83, 'UNSPECIFIED' ) ;
#42 = CARTESIAN_POINT ( 'NONE',  ( 0.0000000000000000000, 0.0000000000000000000, 0.0000000000000000000 ) ) ;
#43 = AXIS2_PLACEMENT_3D ( 'NONE', #159, #36, #19 ) ;
#44 = AXIS2_PLACEMENT_3D ( 'NONE', #70, #141, #121 ) ;
#45 = PRODUCT_DEFINITION_SHAPE ( 'NONE', 'NONE',  #128 ) ;
#46 = CARTESIAN_POINT ( 'NONE',  ( 2.478951750578624367E-14, 3.561929483821896766E-33, 7.099999999999999645 ) ) ;
#47 = CALENDAR_DATE ( 2021, 8, 10 ) ;
#48 = FACE_OUTER_BOUND ( 'NONE', #142, .T. ) ;
#49 = DATE_TIME_ROLE ( 'classification_date' ) ;
#50 = ORGANIZATION ( 'UNSPECIFIED', 'UNSPECIFIED', '' ) ;
#51 = PERSON_AND_ORGANIZATION ( #21, #50 ) ;
#52 = DIRECTION ( 'NONE',  ( -3.491481338843133355E-15, 1.224646799147353207E-16, -1.000000000000000000 ) ) ;
#53 = CC_DESIGN_PERSON_AND_ORGANIZATION_ASSIGNMENT ( #133, #183, ( #128 ) ) ;
#54 = CLOSED_SHELL ( 'NONE', ( #178, #22, #172 ) ) ;
#55 = AXIS2_PLACEMENT_3D ( 'NONE', #220, #68, #102 ) ;
#56 = DIRECTION ( 'NONE',  ( -4.275831445896958607E-31, -1.000000000000000000, -1.224646799147353207E-16 ) ) ;
#57 = CARTESIAN_POINT ( 'NONE',  ( 0.0000000000000000000, 0.0000000000000000000, 0.0000000000000000000 ) ) ;
#58 = APPROVAL ( #8, 'UNSPECIFIED' ) ;
#59 = ORIENTED_EDGE ( 'NONE', *, *, #209, .F. ) ;
#60 = ORIENTED_EDGE ( 'NONE', *, *, #223, .T. ) ;
#61 = EDGE_LOOP ( 'NONE', ( #163 ) ) ;
#62 = VERTEX_POINT ( 'NONE', #144 ) ;
#63 = FACE_OUTER_BOUND ( 'NONE', #40, .T. ) ;
#64 = MECHANICAL_CONTEXT ( 'NONE', #216, 'mechanical' ) ;
#65 = PERSON_AND_ORGANIZATION ( #21, #50 ) ;
#66 = DIRECTION ( 'NONE',  ( 0.0000000000000000000, 1.000000000000000000, 0.0000000000000000000 ) ) ;
#67 = DATE_AND_TIME ( #129, #171 ) ;
#68 = DIRECTION ( 'NONE',  ( -3.491481338843133355E-15, 1.224646799147353207E-16, -1.000000000000000000 ) ) ;
#69 = CC_DESIGN_PERSON_AND_ORGANIZATION_ASSIGNMENT ( #114, #153, ( #81 ) ) ;
#70 = CARTESIAN_POINT ( 'NONE',  ( 2.645255885073885211E-14, -9.278308655244909101E-16, 7.576313972081442749 ) ) ;
#71 = VERTEX_POINT ( 'NONE', #174 ) ;
#72 = EDGE_LOOP ( 'NONE', ( #59 ) ) ;
#73 = AXIS2_PLACEMENT_3D ( 'NONE', #46, #152, #111 ) ;
#74 = ORIENTED_EDGE ( 'NONE', *, *, #154, .T. ) ;
#75 = DESIGN_CONTEXT ( 'detailed design', #4, 'design' ) ;
#76 = AXIS2_PLACEMENT_3D ( 'NONE', #15, #113, #135 ) ;
#77 = CC_DESIGN_APPROVAL ( #58, ( #81 ) ) ;
#78 = SECURITY_CLASSIFICATION_LEVEL ( 'unclassified' ) ;
#79 = PERSON_AND_ORGANIZATION_ROLE ( 'design_supplier' ) ;
#80 = CIRCLE ( 'NONE', #55, 0.4749999999999992006 ) ;
#81 = PRODUCT_DEFINITION_FORMATION_WITH_SPECIFIED_SOURCE ( 'ANY', '', #30, .NOT_KNOWN. ) ;
#82 = COORDINATED_UNIVERSAL_TIME_OFFSET ( 1, 0, .AHEAD. ) ;
#83 = APPROVAL_STATUS ( 'not_yet_approved' ) ;
#84 = DIRECTION ( 'NONE',  ( 3.491481338843133355E-15, -1.224646799147353207E-16, 1.000000000000000000 ) ) ;
#85 = DIRECTION ( 'NONE',  ( -3.491481338843133355E-15, 1.224646799147353207E-16, -1.000000000000000000 ) ) ;
#86 = ORIENTED_EDGE ( 'NONE', *, *, #187, .F. ) ;
#87 = APPROVAL_PERSON_ORGANIZATION ( #51, #58, #32 ) ;
#88 = CARTESIAN_POINT ( 'NONE',  ( 2.478951750578624367E-14, 0.4749999999999988676, 7.099999999999999645 ) ) ;
#89 = ADVANCED_FACE ( 'NONE', ( #93 ), #204, .F. ) ;
#90 = EDGE_LOOP ( 'NONE', ( #211 ) ) ;
#91 = CIRCLE ( 'NONE', #118, 0.6500000000000000222 ) ;
#92 = CIRCLE ( 'NONE', #44, 0.7499999999999973355 ) ;
#93 = FACE_OUTER_BOUND ( 'NONE', #190, .T. ) ;
#94 = ADVANCED_FACE ( 'NONE', ( #200, #11 ), #213, .T. ) ;
#95 = APPROVAL_DATE_TIME ( #217, #58 ) ;
#96 = APPROVAL_DATE_TIME ( #110, #7 ) ;
#97 = PERSON_AND_ORGANIZATION ( #21, #50 ) ;
#98 = PLANE ( 'NONE',  #26 ) ;
#99 = DIRECTION ( 'NONE',  ( -3.491481338843133355E-15, 1.224646799147353207E-16, -1.000000000000000000 ) ) ;
#100 = FACE_OUTER_BOUND ( 'NONE', #145, .T. ) ;
#101 = PRODUCT_RELATED_PRODUCT_CATEGORY ( 'detail', '', ( #30 ) ) ;
#102 = DIRECTION ( 'NONE',  ( 4.054589356604713697E-31, 1.000000000000000000, 1.141265444721585483E-16 ) ) ;
#103 = CYLINDRICAL_SURFACE ( 'NONE', #131, 0.7499999999999986677 ) ;
#104 = CC_DESIGN_APPROVAL ( #7, ( #16 ) ) ;
#105 = ORIENTED_EDGE ( 'NONE', *, *, #164, .F. ) ;
#106 = CIRCLE ( 'NONE', #2, 0.4749999999999997558 ) ;
#107 = EDGE_CURVE ( 'NONE', #24, #24, #202, .T. ) ;
#108 = ADVANCED_BREP_SHAPE_REPRESENTATION ( '55689', ( #18, #20, #140 ), #194 ) ;
#109 = DATE_AND_TIME ( #195, #23 ) ;
#110 = DATE_AND_TIME ( #185, #157 ) ;
#111 = DIRECTION ( 'NONE',  ( -4.275831445896958607E-31, -1.000000000000000000, -1.224646799147353207E-16 ) ) ;
#112 = COORDINATED_UNIVERSAL_TIME_OFFSET ( 1, 0, .AHEAD. ) ;
#113 = DIRECTION ( 'NONE',  ( 3.491481338843133355E-15, -1.224646799147353207E-16, 1.000000000000000000 ) ) ;
#114 = PERSON_AND_ORGANIZATION ( #21, #50 ) ;
#115 = APPROVAL_PERSON_ORGANIZATION ( #210, #41, #12 ) ;
#116 = DIRECTION ( 'NONE',  ( 0.0000000000000000000, 1.000000000000000000, 0.0000000000000000000 ) ) ;
#117 = CARTESIAN_POINT ( 'NONE',  ( 1.043952920314096810E-13, -3.661693929450586610E-15, 29.89999999999999858 ) ) ;
#118 = AXIS2_PLACEMENT_3D ( 'NONE', #173, #218, #137 ) ;
#119 = CARTESIAN_POINT ( 'NONE',  ( 2.478951750578624367E-14, -8.694992273946207746E-16, 7.099999999999999645 ) ) ;
#120 = FACE_OUTER_BOUND ( 'NONE', #25, .T. ) ;
#121 = DIRECTION ( 'NONE',  ( 0.0000000000000000000, 1.000000000000000000, 0.0000000000000000000 ) ) ;
#122 = AXIS2_PLACEMENT_3D ( 'NONE', #42, #27, #193 ) ;
#123 = ORIENTED_EDGE ( 'NONE', *, *, #154, .F. ) ;
#124 = FACE_OUTER_BOUND ( 'NONE', #191, .T. ) ;
#125 = APPLICATION_PROTOCOL_DEFINITION ( 'international standard', 'config_control_design', 1994, #4 ) ;
#126 = CC_DESIGN_DATE_AND_TIME_ASSIGNMENT ( #109, #9, ( #128 ) ) ;
#127 = CARTESIAN_POINT ( 'NONE',  ( 0.0000000000000000000, 0.0000000000000000000, 0.0000000000000000000 ) ) ;
#128 = PRODUCT_DEFINITION ( 'UNKNOWN', '', #81, #75 ) ;
#129 = CALENDAR_DATE ( 2021, 8, 10 ) ;
#130 = CLOSED_SHELL ( 'NONE', ( #34, #94, #199, #136, #89 ) ) ;
#131 = AXIS2_PLACEMENT_3D ( 'NONE', #57, #175, #139 ) ;
#132 = DIRECTION ( 'NONE',  ( -3.491481338843133355E-15, 1.224646799147353207E-16, -1.000000000000000000 ) ) ;
#133 = PERSON_AND_ORGANIZATION ( #21, #50 ) ;
#134 = APPROVAL_ROLE ( '' ) ;
#135 = DIRECTION ( 'NONE',  ( 0.0000000000000000000, -1.000000000000000000, 0.0000000000000000000 ) ) ;
#136 = ADVANCED_FACE ( 'NONE', ( #48, #184 ), #5, .T. ) ;
#137 = DIRECTION ( 'NONE',  ( 0.0000000000000000000, 1.000000000000000000, 0.0000000000000000000 ) ) ;
#138 = CONICAL_SURFACE ( 'NONE', #43, 0.4749999999999992006, 1.047197551196592746 ) ;
#139 = DIRECTION ( 'NONE',  ( 4.275831445896959482E-31, 1.000000000000000000, 1.224646799147353207E-16 ) ) ;
#140 = AXIS2_PLACEMENT_3D ( 'NONE', #127, #182, #167 ) ;
#141 = DIRECTION ( 'NONE',  ( -3.491481338843133355E-15, 1.224646799147353207E-16, -1.000000000000000000 ) ) ;
#142 = EDGE_LOOP ( 'NONE', ( #123 ) ) ;
#143 = ORIENTED_EDGE ( 'NONE', *, *, #209, .T. ) ;
#144 = CARTESIAN_POINT ( 'NONE',  ( 2.645255885073885211E-14, 0.7499999999999963363, 7.576313972081442749 ) ) ;
#145 = EDGE_LOOP ( 'NONE', ( #176 ) ) ;
#146 = CC_DESIGN_DATE_AND_TIME_ASSIGNMENT ( #67, #49, ( #16 ) ) ;
#147 =( LENGTH_UNIT ( ) NAMED_UNIT ( * ) SI_UNIT ( .MILLI., .METRE. ) );
#148 = APPROVAL_PERSON_ORGANIZATION ( #65, #7, #134 ) ;
#149 = APPLICATION_PROTOCOL_DEFINITION ( 'international standard', 'config_control_design', 1994, #216 ) ;
#150 = PLANE ( 'NONE',  #73 ) ;
#151 = DATE_AND_TIME ( #47, #203 ) ;
#152 = DIRECTION ( 'NONE',  ( 3.491481338843133355E-15, -1.224646799147353207E-16, 1.000000000000000000 ) ) ;
#153 = PERSON_AND_ORGANIZATION_ROLE ( 'creator' ) ;
#154 = EDGE_CURVE ( 'NONE', #160, #160, #196, .T. ) ;
#155 = APPROVAL_DATE_TIME ( #151, #41 ) ;
#156 = DIRECTION ( 'NONE',  ( 0.0000000000000000000, 1.000000000000000000, 0.0000000000000000000 ) ) ;
#157 = LOCAL_TIME ( 10, 11, 36.00000000000000000, #215 ) ;
#158 = AXIS2_PLACEMENT_3D ( 'NONE', #186, #169, #13 ) ;
#159 = CARTESIAN_POINT ( 'NONE',  ( 9.575086531545373174E-16, -3.358488255962237606E-17, 0.2742413778650749090 ) ) ;
#160 = VERTEX_POINT ( 'NONE', #222 ) ;
#161 = EDGE_LOOP ( 'NONE', ( #60 ) ) ;
#162 = PERSON_AND_ORGANIZATION ( #21, #50 ) ;
#163 = ORIENTED_EDGE ( 'NONE', *, *, #107, .F. ) ;
#164 = EDGE_CURVE ( 'NONE', #71, #71, #91, .T. ) ;
#165 = VERTEX_POINT ( 'NONE', #39 ) ;
#166 = CARTESIAN_POINT ( 'NONE',  ( 9.575086531545375146E-16, 0.4749999999999991451, 0.2742413778650749645 ) ) ;
#167 = DIRECTION ( 'NONE',  ( 1.000000000000000000, 0.0000000000000000000, 0.0000000000000000000 ) ) ;
#168 = CC_DESIGN_APPROVAL ( #41, ( #128 ) ) ;
#169 = DIRECTION ( 'NONE',  ( -3.491481338843133355E-15, 1.224646799147353207E-16, -1.000000000000000000 ) ) ;
#170 = CALENDAR_DATE ( 2021, 8, 10 ) ;
#171 = LOCAL_TIME ( 10, 11, 36.00000000000000000, #201 ) ;
#172 = ADVANCED_FACE ( 'NONE', ( #188 ), #98, .T. ) ;
#173 = CARTESIAN_POINT ( 'NONE',  ( 1.047444401652940007E-13, -3.673940397442059178E-15, 30.00000000000000000 ) ) ;
#174 = CARTESIAN_POINT ( 'NONE',  ( 1.047444401652940007E-13, 0.6499999999999962474, 30.00000000000000000 ) ) ;
#175 = DIRECTION ( 'NONE',  ( -3.491481338843133355E-15, 1.224646799147353207E-16, -1.000000000000000000 ) ) ;
#176 = ORIENTED_EDGE ( 'NONE', *, *, #223, .F. ) ;
#177 =( NAMED_UNIT ( * ) PLANE_ANGLE_UNIT ( ) SI_UNIT ( $, .RADIAN. ) );
#178 = ADVANCED_FACE ( 'NONE', ( #120 ), #138, .T. ) ;
#179 = ORIENTED_EDGE ( 'NONE', *, *, #187, .T. ) ;
#180 = EDGE_LOOP ( 'NONE', ( #143 ) ) ;
#181 = CC_DESIGN_SECURITY_CLASSIFICATION ( #16, ( #81 ) ) ;
#182 = DIRECTION ( 'NONE',  ( 0.0000000000000000000, 0.0000000000000000000, 1.000000000000000000 ) ) ;
#183 = PERSON_AND_ORGANIZATION_ROLE ( 'creator' ) ;
#184 = FACE_BOUND ( 'NONE', #90, .T. ) ;
#185 = CALENDAR_DATE ( 2021, 8, 10 ) ;
#186 = CARTESIAN_POINT ( 'NONE',  ( 1.047444401652940007E-13, 4.874219293650981803E-33, 30.00000000000000000 ) ) ;
#187 = EDGE_CURVE ( 'NONE', #17, #17, #80, .T. ) ;
#188 = FACE_OUTER_BOUND ( 'NONE', #61, .T. ) ;
#189 = CARTESIAN_POINT ( 'NONE',  ( 2.478951750578624367E-14, 3.561929483821896766E-33, 7.099999999999999645 ) ) ;
#190 = EDGE_LOOP ( 'NONE', ( #105 ) ) ;
#191 = EDGE_LOOP ( 'NONE', ( #38 ) ) ;
#192 = CYLINDRICAL_SURFACE ( 'NONE', #122, 0.4749999999999994782 ) ;
#193 = DIRECTION ( 'NONE',  ( 4.275831445896958607E-31, 1.000000000000000000, 1.224646799147353207E-16 ) ) ;
#194 =( GEOMETRIC_REPRESENTATION_CONTEXT ( 3 ) GLOBAL_UNCERTAINTY_ASSIGNED_CONTEXT ( ( #207 ) ) GLOBAL_UNIT_ASSIGNED_CONTEXT ( ( #147, #177, #6 ) ) REPRESENTATION_CONTEXT ( 'NONE', 'WORKASPACE' ) );
#195 = CALENDAR_DATE ( 2021, 8, 10 ) ;
#196 = CIRCLE ( 'NONE', #35, 0.7500000000000000000 ) ;
#197 = AXIS2_PLACEMENT_3D ( 'NONE', #119, #132, #156 ) ;
#198 = SHAPE_DEFINITION_REPRESENTATION ( #45, #108 ) ;
#199 = ADVANCED_FACE ( 'NONE', ( #100, #208 ), #103, .T. ) ;
#200 = FACE_BOUND ( 'NONE', #72, .T. ) ;
#201 = COORDINATED_UNIVERSAL_TIME_OFFSET ( 1, 0, .AHEAD. ) ;
#202 = CIRCLE ( 'NONE', #197, 0.4749999999999997558 ) ;
#203 = LOCAL_TIME ( 10, 11, 36.00000000000000000, #112 ) ;
#204 = PLANE ( 'NONE',  #158 ) ;
#205 = CARTESIAN_POINT ( 'NONE',  ( 1.047444401652940007E-13, -3.673940397442059178E-15, 30.00000000000000000 ) ) ;
#206 = CARTESIAN_POINT ( 'NONE',  ( 2.478951750578624367E-14, -8.694992273946207746E-16, 7.099999999999999645 ) ) ;
#207 = UNCERTAINTY_MEASURE_WITH_UNIT (LENGTH_MEASURE( 1.000000000000000082E-05 ), #147, 'distance_accuracy_value', 'NONE');
#208 = FACE_OUTER_BOUND ( 'NONE', #3, .T. ) ;
#209 = EDGE_CURVE ( 'NONE', #165, #165, #106, .T. ) ;
#210 = PERSON_AND_ORGANIZATION ( #21, #50 ) ;
#211 = ORIENTED_EDGE ( 'NONE', *, *, #164, .T. ) ;
#212 = CC_DESIGN_PERSON_AND_ORGANIZATION_ASSIGNMENT ( #162, #1, ( #30 ) ) ;
#213 = CONICAL_SURFACE ( 'NONE', #76, 0.7499999999999973355, 0.5235987755982934866 ) ;
#214 = PERSON_AND_ORGANIZATION_ROLE ( 'classification_officer' ) ;
#215 = COORDINATED_UNIVERSAL_TIME_OFFSET ( 1, 0, .AHEAD. ) ;
#216 = APPLICATION_CONTEXT ( 'configuration controlled 3d designs of mechanical parts and assemblies' ) ;
#217 = DATE_AND_TIME ( #170, #31 ) ;
#218 = DIRECTION ( 'NONE',  ( -3.491481338843133355E-15, 1.224646799147353207E-16, -1.000000000000000000 ) ) ;
#219 = CC_DESIGN_PERSON_AND_ORGANIZATION_ASSIGNMENT ( #33, #79, ( #81 ) ) ;
#220 = CARTESIAN_POINT ( 'NONE',  ( 9.575086531545373174E-16, -3.358488255962237606E-17, 0.2742413778650749090 ) ) ;
#221 = DIRECTION ( 'NONE',  ( 0.0000000000000000000, 1.000000000000000000, 0.0000000000000000000 ) ) ;
#222 = CARTESIAN_POINT ( 'NONE',  ( 1.043952920314096810E-13, 0.7499999999999963363, 29.89999999999999858 ) ) ;
#223 = EDGE_CURVE ( 'NONE', #62, #62, #92, .T. ) ;
ENDSEC;
END-ISO-10303-21;
