ISO-10303-21;
HEADER;
FILE_DESCRIPTION (( 'STEP AP203' ),
    '1' );
FILE_NAME ('55687.step',
    '2021-10-08T08:11:35',
    ( '' ),
    ( '' ),
    'SwSTEP 2.0',
    'SolidWorks 2019',
    '' );
FILE_SCHEMA (( 'CONFIG_CONTROL_DESIGN' ));
ENDSEC;

DATA;
#1 = DIRECTION ( 'NONE',  ( -3.491481338843133355E-15, 1.224646799147353207E-16, -1.000000000000000000 ) ) ;
#2 = FACE_OUTER_BOUND ( 'NONE', #211, .T. ) ;
#3 = PLANE ( 'NONE',  #110 ) ;
#4 = COORDINATED_UNIVERSAL_TIME_OFFSET ( 1, 0, .AHEAD. ) ;
#5 = CIRCLE ( 'NONE', #48, 0.4499999999999992895 ) ;
#6 = DATE_TIME_ROLE ( 'creation_date' ) ;
#7 = DATE_AND_TIME ( #129, #105 ) ;
#8 = CARTESIAN_POINT ( 'NONE',  ( 2.660374442755272733E-14, -9.331337417181153424E-16, 7.619615242270665334 ) ) ;
#9 = VERTEX_POINT ( 'NONE', #168 ) ;
#10 = DIRECTION ( 'NONE',  ( -4.275831445896958607E-31, -1.000000000000000000, -1.224646799147353207E-16 ) ) ;
#11 = PERSON_AND_ORGANIZATION ( #169, #147 ) ;
#12 = CARTESIAN_POINT ( 'NONE',  ( 2.478951750578624367E-14, 0.4499999999999994560, 7.099999999999999645 ) ) ;
#13 = PRODUCT_DEFINITION_FORMATION_WITH_SPECIFIED_SOURCE ( 'ANY', '', #208, .NOT_KNOWN. ) ;
#14 = EDGE_LOOP ( 'NONE', ( #210 ) ) ;
#15 = DIRECTION ( 'NONE',  ( -3.491481338843133355E-15, 1.224646799147353207E-16, -1.000000000000000000 ) ) ;
#16 = CIRCLE ( 'NONE', #219, 0.4500000000000002887 ) ;
#17 = EDGE_CURVE ( 'NONE', #119, #119, #80, .T. ) ;
#18 = APPLICATION_CONTEXT ( 'configuration controlled 3d designs of mechanical parts and assemblies' ) ;
#19 = EDGE_LOOP ( 'NONE', ( #108 ) ) ;
#20 = CARTESIAN_POINT ( 'NONE',  ( 1.047444401652940007E-13, 4.874219293650981803E-33, 30.00000000000000000 ) ) ;
#21 = FACE_OUTER_BOUND ( 'NONE', #127, .T. ) ;
#22 = ORIENTED_EDGE ( 'NONE', *, *, #116, .F. ) ;
#23 = PERSON_AND_ORGANIZATION ( #169, #147 ) ;
#24 = PERSON_AND_ORGANIZATION ( #169, #147 ) ;
#25 = SHAPE_DEFINITION_REPRESENTATION ( #126, #67 ) ;
#26 = PRODUCT_RELATED_PRODUCT_CATEGORY ( 'detail', '', ( #208 ) ) ;
#27 = FACE_OUTER_BOUND ( 'NONE', #19, .T. ) ;
#28 = ADVANCED_FACE ( 'NONE', ( #192 ), #202, .F. ) ;
#29 = CARTESIAN_POINT ( 'NONE',  ( 2.478951750578624367E-14, 3.374459510989169354E-33, 7.099999999999999645 ) ) ;
#30 = AXIS2_PLACEMENT_3D ( 'NONE', #89, #31, #158 ) ;
#31 = DIRECTION ( 'NONE',  ( -3.491481338843133355E-15, 1.224646799147353207E-16, -1.000000000000000000 ) ) ;
#32 = LOCAL_TIME ( 10, 11, 35.00000000000000000, #201 ) ;
#33 = ORIENTED_EDGE ( 'NONE', *, *, #206, .T. ) ;
#34 = EDGE_LOOP ( 'NONE', ( #207 ) ) ;
#35 = ADVANCED_FACE ( 'NONE', ( #222, #86 ), #103, .T. ) ;
#36 = PERSON_AND_ORGANIZATION_ROLE ( 'creator' ) ;
#37 = CARTESIAN_POINT ( 'NONE',  ( 1.047444401652940007E-13, -3.673940397442059178E-15, 30.00000000000000000 ) ) ;
#38 = CC_DESIGN_APPROVAL ( #90, ( #13 ) ) ;
#39 =( NAMED_UNIT ( * ) SI_UNIT ( $, .STERADIAN. ) SOLID_ANGLE_UNIT ( ) );
#40 = CALENDAR_DATE ( 2021, 8, 10 ) ;
#41 = APPLICATION_CONTEXT ( 'configuration controlled 3d designs of mechanical parts and assemblies' ) ;
#42 = PERSON_AND_ORGANIZATION ( #169, #147 ) ;
#43 = LOCAL_TIME ( 10, 11, 35.00000000000000000, #180 ) ;
#44 = UNCERTAINTY_MEASURE_WITH_UNIT (LENGTH_MEASURE( 1.000000000000000082E-05 ), #165, 'distance_accuracy_value', 'NONE');
#45 = DIRECTION ( 'NONE',  ( 0.0000000000000000000, 1.000000000000000000, 0.0000000000000000000 ) ) ;
#46 = FACE_OUTER_BOUND ( 'NONE', #161, .T. ) ;
#47 = DIRECTION ( 'NONE',  ( -3.491481338843133355E-15, 1.224646799147353207E-16, -1.000000000000000000 ) ) ;
#48 = AXIS2_PLACEMENT_3D ( 'NONE', #167, #47, #139 ) ;
#49 = DIRECTION ( 'NONE',  ( 3.491481338843133355E-15, -1.224646799147353207E-16, 1.000000000000000000 ) ) ;
#50 = PRODUCT_DEFINITION ( 'UNKNOWN', '', #13, #205 ) ;
#51 = CALENDAR_DATE ( 2021, 8, 10 ) ;
#52 = APPROVAL ( #122, 'UNSPECIFIED' ) ;
#53 = CARTESIAN_POINT ( 'NONE',  ( 0.0000000000000000000, 0.0000000000000000000, 0.0000000000000000000 ) ) ;
#54 = DIRECTION ( 'NONE',  ( 0.0000000000000000000, -1.000000000000000000, 0.0000000000000000000 ) ) ;
#55 = DIRECTION ( 'NONE',  ( 0.0000000000000000000, 0.0000000000000000000, 1.000000000000000000 ) ) ;
#56 = DIRECTION ( 'NONE',  ( 0.0000000000000000000, 1.000000000000000000, 0.0000000000000000000 ) ) ;
#57 = CARTESIAN_POINT ( 'NONE',  ( 0.0000000000000000000, 0.0000000000000000000, 0.0000000000000000000 ) ) ;
#58 = LOCAL_TIME ( 10, 11, 35.00000000000000000, #109 ) ;
#59 = AXIS2_PLACEMENT_3D ( 'NONE', #29, #154, #10 ) ;
#60 = PERSON_AND_ORGANIZATION ( #169, #147 ) ;
#61 = CC_DESIGN_PERSON_AND_ORGANIZATION_ASSIGNMENT ( #24, #92, ( #13 ) ) ;
#62 = CIRCLE ( 'NONE', #117, 0.4500000000000002887 ) ;
#63 = ORIENTED_EDGE ( 'NONE', *, *, #155, .F. ) ;
#64 = APPROVAL_DATE_TIME ( #95, #52 ) ;
#65 = CARTESIAN_POINT ( 'NONE',  ( 2.478951750578624367E-14, -8.694992273946207746E-16, 7.099999999999999645 ) ) ;
#66 = CIRCLE ( 'NONE', #174, 0.7499999999999973355 ) ;
#67 = ADVANCED_BREP_SHAPE_REPRESENTATION ( '55687', ( #223, #218, #78 ), #133 ) ;
#68 = CC_DESIGN_DATE_AND_TIME_ASSIGNMENT ( #137, #98, ( #172 ) ) ;
#69 = DIRECTION ( 'NONE',  ( -3.491481338843133355E-15, 1.224646799147353207E-16, -1.000000000000000000 ) ) ;
#70 = DIRECTION ( 'NONE',  ( 3.491481338843133355E-15, -1.224646799147353207E-16, 1.000000000000000000 ) ) ;
#71 = CARTESIAN_POINT ( 'NONE',  ( 2.660374442755272733E-14, -9.331337417181153424E-16, 7.619615242270665334 ) ) ;
#72 = LOCAL_TIME ( 10, 11, 35.00000000000000000, #100 ) ;
#73 = ORIENTED_EDGE ( 'NONE', *, *, #116, .T. ) ;
#74 = DATE_AND_TIME ( #40, #58 ) ;
#75 = APPROVAL_DATE_TIME ( #7, #112 ) ;
#76 = APPROVAL_STATUS ( 'not_yet_approved' ) ;
#77 = PERSON_AND_ORGANIZATION ( #169, #147 ) ;
#78 = AXIS2_PLACEMENT_3D ( 'NONE', #57, #55, #163 ) ;
#79 = PLANE ( 'NONE',  #59 ) ;
#80 = CIRCLE ( 'NONE', #213, 0.7500000000000000000 ) ;
#81 = VERTEX_POINT ( 'NONE', #216 ) ;
#82 = ORIENTED_EDGE ( 'NONE', *, *, #142, .F. ) ;
#83 = CLOSED_SHELL ( 'NONE', ( #144, #35, #93, #87, #28 ) ) ;
#84 = AXIS2_PLACEMENT_3D ( 'NONE', #188, #70, #102 ) ;
#85 = DIRECTION ( 'NONE',  ( 0.0000000000000000000, 1.000000000000000000, 0.0000000000000000000 ) ) ;
#86 = FACE_OUTER_BOUND ( 'NONE', #34, .T. ) ;
#87 = ADVANCED_FACE ( 'NONE', ( #27, #177 ), #197, .T. ) ;
#88 = ORIENTED_EDGE ( 'NONE', *, *, #212, .T. ) ;
#89 = CARTESIAN_POINT ( 'NONE',  ( 0.0000000000000000000, 0.0000000000000000000, 0.0000000000000000000 ) ) ;
#90 = APPROVAL ( #76, 'UNSPECIFIED' ) ;
#91 = DATE_AND_TIME ( #150, #43 ) ;
#92 = PERSON_AND_ORGANIZATION_ROLE ( 'design_supplier' ) ;
#93 = ADVANCED_FACE ( 'NONE', ( #2, #21 ), #178, .T. ) ;
#94 = APPROVAL_STATUS ( 'not_yet_approved' ) ;
#95 = DATE_AND_TIME ( #215, #32 ) ;
#96 = FACE_OUTER_BOUND ( 'NONE', #14, .T. ) ;
#97 = ADVANCED_FACE ( 'NONE', ( #121 ), #152, .T. ) ;
#98 = DATE_TIME_ROLE ( 'classification_date' ) ;
#99 = CARTESIAN_POINT ( 'NONE',  ( 1.043952920314096810E-13, 0.7499999999999963363, 29.89999999999999858 ) ) ;
#100 = COORDINATED_UNIVERSAL_TIME_OFFSET ( 1, 0, .AHEAD. ) ;
#101 = DIRECTION ( 'NONE',  ( -3.491481338843133355E-15, 1.224646799147353207E-16, -1.000000000000000000 ) ) ;
#102 = DIRECTION ( 'NONE',  ( -4.279844320860531027E-31, -1.000000000000000000, -1.204669080539451316E-16 ) ) ;
#103 = CONICAL_SURFACE ( 'NONE', #136, 0.7499999999999973355, 0.5235987755982925984 ) ;
#104 = CC_DESIGN_DATE_AND_TIME_ASSIGNMENT ( #74, #6, ( #50 ) ) ;
#105 = LOCAL_TIME ( 10, 11, 35.00000000000000000, #4 ) ;
#106 = ORIENTED_EDGE ( 'NONE', *, *, #212, .F. ) ;
#107 = CARTESIAN_POINT ( 'NONE',  ( 1.043952920314096810E-13, -3.661693929450586610E-15, 29.89999999999999858 ) ) ;
#108 = ORIENTED_EDGE ( 'NONE', *, *, #17, .F. ) ;
#109 = COORDINATED_UNIVERSAL_TIME_OFFSET ( 1, 0, .AHEAD. ) ;
#110 = AXIS2_PLACEMENT_3D ( 'NONE', #183, #49, #120 ) ;
#111 = DIRECTION ( 'NONE',  ( 0.0000000000000000000, 1.000000000000000000, 0.0000000000000000000 ) ) ;
#112 = APPROVAL ( #94, 'UNSPECIFIED' ) ;
#113 = APPLICATION_PROTOCOL_DEFINITION ( 'international standard', 'config_control_design', 1994, #18 ) ;
#114 = PERSON_AND_ORGANIZATION_ROLE ( 'creator' ) ;
#115 = CC_DESIGN_APPROVAL ( #112, ( #50 ) ) ;
#116 = EDGE_CURVE ( 'NONE', #9, #9, #185, .T. ) ;
#117 = AXIS2_PLACEMENT_3D ( 'NONE', #65, #124, #189 ) ;
#118 = APPROVAL_ROLE ( '' ) ;
#119 = VERTEX_POINT ( 'NONE', #99 ) ;
#120 = DIRECTION ( 'NONE',  ( -4.275831445896958607E-31, -1.000000000000000000, -1.224646799147353207E-16 ) ) ;
#121 = FACE_OUTER_BOUND ( 'NONE', #175, .T. ) ;
#122 = APPROVAL_STATUS ( 'not_yet_approved' ) ;
#123 = CARTESIAN_POINT ( 'NONE',  ( 2.478951750578624367E-14, 0.4499999999999994560, 7.099999999999999645 ) ) ;
#124 = DIRECTION ( 'NONE',  ( -3.491481338843133355E-15, 1.224646799147353207E-16, -1.000000000000000000 ) ) ;
#125 = DIRECTION ( 'NONE',  ( -3.491481338843133355E-15, 1.224646799147353207E-16, -1.000000000000000000 ) ) ;
#126 = PRODUCT_DEFINITION_SHAPE ( 'NONE', 'NONE',  #50 ) ;
#127 = EDGE_LOOP ( 'NONE', ( #204 ) ) ;
#128 = EDGE_LOOP ( 'NONE', ( #73 ) ) ;
#129 = CALENDAR_DATE ( 2021, 8, 10 ) ;
#130 = DIRECTION ( 'NONE',  ( -3.491481338843133355E-15, 1.224646799147353207E-16, -1.000000000000000000 ) ) ;
#131 = CC_DESIGN_PERSON_AND_ORGANIZATION_ASSIGNMENT ( #60, #186, ( #172 ) ) ;
#132 = MECHANICAL_CONTEXT ( 'NONE', #18, 'mechanical' ) ;
#133 =( GEOMETRIC_REPRESENTATION_CONTEXT ( 3 ) GLOBAL_UNCERTAINTY_ASSIGNED_CONTEXT ( ( #44 ) ) GLOBAL_UNIT_ASSIGNED_CONTEXT ( ( #165, #153, #39 ) ) REPRESENTATION_CONTEXT ( 'NONE', 'WORKASPACE' ) );
#134 = APPROVAL_ROLE ( '' ) ;
#135 = DIRECTION ( 'NONE',  ( -3.491481338843133355E-15, 1.224646799147353207E-16, -1.000000000000000000 ) ) ;
#136 = AXIS2_PLACEMENT_3D ( 'NONE', #71, #193, #54 ) ;
#137 = DATE_AND_TIME ( #51, #72 ) ;
#138 = ADVANCED_FACE ( 'NONE', ( #157, #220 ), #145, .T. ) ;
#139 = DIRECTION ( 'NONE',  ( 4.279844320860531027E-31, 1.000000000000000000, 1.204669080539451316E-16 ) ) ;
#140 = APPROVAL_PERSON_ORGANIZATION ( #77, #90, #134 ) ;
#141 = EDGE_LOOP ( 'NONE', ( #33 ) ) ;
#142 = EDGE_CURVE ( 'NONE', #171, #171, #66, .T. ) ;
#143 = AXIS2_PLACEMENT_3D ( 'NONE', #37, #130, #111 ) ;
#144 = ADVANCED_FACE ( 'NONE', ( #46 ), #3, .F. ) ;
#145 = CYLINDRICAL_SURFACE ( 'NONE', #164, 0.4499999999999997891 ) ;
#146 = EDGE_LOOP ( 'NONE', ( #106 ) ) ;
#147 = ORGANIZATION ( 'UNSPECIFIED', 'UNSPECIFIED', '' ) ;
#148 = DIRECTION ( 'NONE',  ( 4.275831445896958607E-31, 1.000000000000000000, 1.224646799147353207E-16 ) ) ;
#149 = EDGE_LOOP ( 'NONE', ( #22 ) ) ;
#150 = CALENDAR_DATE ( 2021, 8, 10 ) ;
#151 = PERSON_AND_ORGANIZATION ( #169, #147 ) ;
#152 = CONICAL_SURFACE ( 'NONE', #84, 0.4499999999999992895, 1.047197551196592746 ) ;
#153 =( NAMED_UNIT ( * ) PLANE_ANGLE_UNIT ( ) SI_UNIT ( $, .RADIAN. ) );
#154 = DIRECTION ( 'NONE',  ( 3.491481338843133355E-15, -1.224646799147353207E-16, 1.000000000000000000 ) ) ;
#155 = EDGE_CURVE ( 'NONE', #199, #199, #62, .T. ) ;
#156 = CARTESIAN_POINT ( 'NONE',  ( 2.478951750578624367E-14, -8.694992273946207746E-16, 7.099999999999999645 ) ) ;
#157 = FACE_OUTER_BOUND ( 'NONE', #146, .T. ) ;
#158 = DIRECTION ( 'NONE',  ( 4.275831445896959482E-31, 1.000000000000000000, 1.224646799147353207E-16 ) ) ;
#159 = ORIENTED_EDGE ( 'NONE', *, *, #155, .T. ) ;
#160 = CC_DESIGN_PERSON_AND_ORGANIZATION_ASSIGNMENT ( #23, #194, ( #208 ) ) ;
#161 = EDGE_LOOP ( 'NONE', ( #159 ) ) ;
#162 = APPROVAL_ROLE ( '' ) ;
#163 = DIRECTION ( 'NONE',  ( 1.000000000000000000, 0.0000000000000000000, 0.0000000000000000000 ) ) ;
#164 = AXIS2_PLACEMENT_3D ( 'NONE', #53, #125, #190 ) ;
#165 =( LENGTH_UNIT ( ) NAMED_UNIT ( * ) SI_UNIT ( .MILLI., .METRE. ) );
#166 = AXIS2_PLACEMENT_3D ( 'NONE', #20, #1, #148 ) ;
#167 = CARTESIAN_POINT ( 'NONE',  ( 9.071134608832461703E-16, -3.181725716174752422E-17, 0.2598076211353341769 ) ) ;
#168 = CARTESIAN_POINT ( 'NONE',  ( 1.047444401652940007E-13, 0.6499999999999962474, 30.00000000000000000 ) ) ;
#169 = PERSON ( 'UNSPECIFIED', 'UNSPECIFIED', 'UNSPECIFIED', ('UNSPECIFIED'), ('UNSPECIFIED'), ('UNSPECIFIED') ) ;
#170 = SECURITY_CLASSIFICATION_LEVEL ( 'unclassified' ) ;
#171 = VERTEX_POINT ( 'NONE', #214 ) ;
#172 = SECURITY_CLASSIFICATION ( '', '', #170 ) ;
#173 = CARTESIAN_POINT ( 'NONE',  ( 1.047444401652940007E-13, -3.673940397442059178E-15, 30.00000000000000000 ) ) ;
#174 = AXIS2_PLACEMENT_3D ( 'NONE', #8, #135, #45 ) ;
#175 = EDGE_LOOP ( 'NONE', ( #88 ) ) ;
#176 = EDGE_LOOP ( 'NONE', ( #63 ) ) ;
#177 = FACE_BOUND ( 'NONE', #128, .T. ) ;
#178 = CYLINDRICAL_SURFACE ( 'NONE', #30, 0.7499999999999986677 ) ;
#179 = PERSON_AND_ORGANIZATION ( #169, #147 ) ;
#180 = COORDINATED_UNIVERSAL_TIME_OFFSET ( 1, 0, .AHEAD. ) ;
#181 = APPLICATION_PROTOCOL_DEFINITION ( 'international standard', 'config_control_design', 1994, #41 ) ;
#182 = CLOSED_SHELL ( 'NONE', ( #97, #138, #198 ) ) ;
#183 = CARTESIAN_POINT ( 'NONE',  ( 2.478951750578624367E-14, 3.374459510989169354E-33, 7.099999999999999645 ) ) ;
#184 = VERTEX_POINT ( 'NONE', #123 ) ;
#185 = CIRCLE ( 'NONE', #209, 0.6500000000000000222 ) ;
#186 = PERSON_AND_ORGANIZATION_ROLE ( 'classification_officer' ) ;
#187 = DIRECTION ( 'NONE',  ( 0.0000000000000000000, 1.000000000000000000, 0.0000000000000000000 ) ) ;
#188 = CARTESIAN_POINT ( 'NONE',  ( 9.071134608832461703E-16, -3.181725716174752422E-17, 0.2598076211353341769 ) ) ;
#189 = DIRECTION ( 'NONE',  ( 0.0000000000000000000, 1.000000000000000000, 0.0000000000000000000 ) ) ;
#190 = DIRECTION ( 'NONE',  ( 4.275831445896958607E-31, 1.000000000000000000, 1.224646799147353207E-16 ) ) ;
#191 = CC_DESIGN_SECURITY_CLASSIFICATION ( #172, ( #13 ) ) ;
#192 = FACE_OUTER_BOUND ( 'NONE', #149, .T. ) ;
#193 = DIRECTION ( 'NONE',  ( 3.491481338843133355E-15, -1.224646799147353207E-16, 1.000000000000000000 ) ) ;
#194 = PERSON_AND_ORGANIZATION_ROLE ( 'design_owner' ) ;
#195 = APPROVAL_DATE_TIME ( #91, #90 ) ;
#196 = CC_DESIGN_APPROVAL ( #52, ( #172 ) ) ;
#197 = CONICAL_SURFACE ( 'NONE', #143, 0.6500000000000000222, 0.7853981633974516097 ) ;
#198 = ADVANCED_FACE ( 'NONE', ( #96 ), #79, .T. ) ;
#199 = VERTEX_POINT ( 'NONE', #12 ) ;
#200 = APPROVAL_PERSON_ORGANIZATION ( #179, #112, #162 ) ;
#201 = COORDINATED_UNIVERSAL_TIME_OFFSET ( 1, 0, .AHEAD. ) ;
#202 = PLANE ( 'NONE',  #166 ) ;
#203 = APPROVAL_PERSON_ORGANIZATION ( #11, #52, #118 ) ;
#204 = ORIENTED_EDGE ( 'NONE', *, *, #17, .T. ) ;
#205 = DESIGN_CONTEXT ( 'detailed design', #41, 'design' ) ;
#206 = EDGE_CURVE ( 'NONE', #184, #184, #16, .T. ) ;
#207 = ORIENTED_EDGE ( 'NONE', *, *, #142, .T. ) ;
#208 = PRODUCT ( '55687', '55687', '', ( #132 ) ) ;
#209 = AXIS2_PLACEMENT_3D ( 'NONE', #173, #15, #85 ) ;
#210 = ORIENTED_EDGE ( 'NONE', *, *, #206, .F. ) ;
#211 = EDGE_LOOP ( 'NONE', ( #82 ) ) ;
#212 = EDGE_CURVE ( 'NONE', #81, #81, #5, .T. ) ;
#213 = AXIS2_PLACEMENT_3D ( 'NONE', #107, #69, #56 ) ;
#214 = CARTESIAN_POINT ( 'NONE',  ( 2.660374442755272733E-14, 0.7499999999999963363, 7.619615242270665334 ) ) ;
#215 = CALENDAR_DATE ( 2021, 8, 10 ) ;
#216 = CARTESIAN_POINT ( 'NONE',  ( 9.071134608832463675E-16, 0.4499999999999992339, 0.2598076211353342324 ) ) ;
#217 = CC_DESIGN_PERSON_AND_ORGANIZATION_ASSIGNMENT ( #42, #114, ( #13 ) ) ;
#218 = MANIFOLD_SOLID_BREP ( 'Corps-Déplacer/Copier1[2]', #182 ) ;
#219 = AXIS2_PLACEMENT_3D ( 'NONE', #156, #101, #187 ) ;
#220 = FACE_OUTER_BOUND ( 'NONE', #141, .T. ) ;
#221 = CC_DESIGN_PERSON_AND_ORGANIZATION_ASSIGNMENT ( #151, #36, ( #50 ) ) ;
#222 = FACE_BOUND ( 'NONE', #176, .T. ) ;
#223 = MANIFOLD_SOLID_BREP ( 'Corps-Déplacer/Copier1[1]', #83 ) ;
ENDSEC;
END-ISO-10303-21;
