ISO-10303-21;
HEADER;
FILE_DESCRIPTION (( 'STEP AP203' ),
    '1' );
FILE_NAME ('55685.step',
    '2021-10-08T08:11:33',
    ( '' ),
    ( '' ),
    'SwSTEP 2.0',
    'SolidWorks 2019',
    '' );
FILE_SCHEMA (( 'CONFIG_CONTROL_DESIGN' ));
ENDSEC;

DATA;
#1 = PRODUCT_DEFINITION_SHAPE ( 'NONE', 'NONE',  #158 ) ;
#2 = DIRECTION ( 'NONE',  ( 0.0000000000000000000, 1.000000000000000000, 0.0000000000000000000 ) ) ;
#3 = CC_DESIGN_DATE_AND_TIME_ASSIGNMENT ( #78, #14, ( #193 ) ) ;
#4 = CIRCLE ( 'NONE', #35, 0.7499999999999972244 ) ;
#5 = EDGE_CURVE ( 'NONE', #220, #220, #39, .T. ) ;
#6 = DIRECTION ( 'NONE',  ( -3.491481338843133355E-15, 1.224646799147353207E-16, -1.000000000000000000 ) ) ;
#7 = PLANE ( 'NONE',  #172 ) ;
#8 = DIRECTION ( 'NONE',  ( 0.0000000000000000000, 1.000000000000000000, 0.0000000000000000000 ) ) ;
#9 = PERSON_AND_ORGANIZATION_ROLE ( 'creator' ) ;
#10 = COORDINATED_UNIVERSAL_TIME_OFFSET ( 1, 0, .AHEAD. ) ;
#11 = DIRECTION ( 'NONE',  ( 3.491481338843133355E-15, -1.224646799147353207E-16, 1.000000000000000000 ) ) ;
#12 = CONICAL_SURFACE ( 'NONE', #192, 0.4249999999999992673, 1.047197551196592746 ) ;
#13 = DATE_AND_TIME ( #123, #131 ) ;
#14 = DATE_TIME_ROLE ( 'classification_date' ) ;
#15 = FACE_OUTER_BOUND ( 'NONE', #159, .T. ) ;
#16 = LOCAL_TIME ( 10, 11, 33.00000000000000000, #49 ) ;
#17 = VERTEX_POINT ( 'NONE', #152 ) ;
#18 = ORIENTED_EDGE ( 'NONE', *, *, #133, .F. ) ;
#19 = CLOSED_SHELL ( 'NONE', ( #112, #91, #58 ) ) ;
#20 = ORIENTED_EDGE ( 'NONE', *, *, #65, .T. ) ;
#21 = PRODUCT_DEFINITION_FORMATION_WITH_SPECIFIED_SOURCE ( 'ANY', '', #160, .NOT_KNOWN. ) ;
#22 = ADVANCED_FACE ( 'NONE', ( #126, #189 ), #199, .T. ) ;
#23 = PERSON_AND_ORGANIZATION ( #98, #177 ) ;
#24 = DATE_TIME_ROLE ( 'creation_date' ) ;
#25 = EDGE_LOOP ( 'NONE', ( #97 ) ) ;
#26 = APPLICATION_CONTEXT ( 'configuration controlled 3d designs of mechanical parts and assemblies' ) ;
#27 = EDGE_CURVE ( 'NONE', #54, #54, #4, .T. ) ;
#28 = DIRECTION ( 'NONE',  ( 3.491481338843133355E-15, -1.224646799147353207E-16, 1.000000000000000000 ) ) ;
#29 = CC_DESIGN_SECURITY_CLASSIFICATION ( #193, ( #21 ) ) ;
#30 = CARTESIAN_POINT ( 'NONE',  ( 0.0000000000000000000, 0.0000000000000000000, 0.0000000000000000000 ) ) ;
#31 = PERSON_AND_ORGANIZATION_ROLE ( 'creator' ) ;
#32 = DIRECTION ( 'NONE',  ( -4.275831445896958607E-31, -1.000000000000000000, -1.224646799147353207E-16 ) ) ;
#33 = APPROVAL ( #215, 'UNSPECIFIED' ) ;
#34 = DIRECTION ( 'NONE',  ( -3.491481338843133355E-15, 1.224646799147353207E-16, -1.000000000000000000 ) ) ;
#35 = AXIS2_PLACEMENT_3D ( 'NONE', #42, #43, #2 ) ;
#36 = ORIENTED_EDGE ( 'NONE', *, *, #133, .T. ) ;
#37 = SECURITY_CLASSIFICATION_LEVEL ( 'unclassified' ) ;
#38 = CC_DESIGN_PERSON_AND_ORGANIZATION_ASSIGNMENT ( #115, #9, ( #158 ) ) ;
#39 = CIRCLE ( 'NONE', #109, 0.7500000000000000000 ) ;
#40 = LOCAL_TIME ( 10, 11, 33.00000000000000000, #181 ) ;
#41 = UNCERTAINTY_MEASURE_WITH_UNIT (LENGTH_MEASURE( 1.000000000000000082E-05 ), #223, 'distance_accuracy_value', 'NONE');
#42 = CARTESIAN_POINT ( 'NONE',  ( 2.396174493329209586E-14, -8.404648739799518336E-16, 6.862916512459888096 ) ) ;
#43 = DIRECTION ( 'NONE',  ( -3.491481338843133355E-15, 1.224646799147353207E-16, -1.000000000000000000 ) ) ;
#44 = DIRECTION ( 'NONE',  ( -3.491481338843133355E-15, 1.224646799147353207E-16, -1.000000000000000000 ) ) ;
#45 = DATE_AND_TIME ( #153, #51 ) ;
#46 = APPLICATION_PROTOCOL_DEFINITION ( 'international standard', 'config_control_design', 1994, #26 ) ;
#47 = FACE_BOUND ( 'NONE', #25, .T. ) ;
#48 = ADVANCED_FACE ( 'NONE', ( #96 ), #163, .F. ) ;
#49 = COORDINATED_UNIVERSAL_TIME_OFFSET ( 1, 0, .AHEAD. ) ;
#50 = AXIS2_PLACEMENT_3D ( 'NONE', #73, #197, #211 ) ;
#51 = LOCAL_TIME ( 10, 11, 33.00000000000000000, #10 ) ;
#52 = PERSON_AND_ORGANIZATION ( #98, #177 ) ;
#53 = CARTESIAN_POINT ( 'NONE',  ( 2.199633243471174014E-14, 3.186989538156439206E-33, 6.299999999999999822 ) ) ;
#54 = VERTEX_POINT ( 'NONE', #188 ) ;
#55 = DIRECTION ( 'NONE',  ( 0.0000000000000000000, 1.000000000000000000, 0.0000000000000000000 ) ) ;
#56 = PERSON_AND_ORGANIZATION ( #98, #177 ) ;
#57 = ORIENTED_EDGE ( 'NONE', *, *, #138, .F. ) ;
#58 = ADVANCED_FACE ( 'NONE', ( #61 ), #7, .T. ) ;
#59 = EDGE_LOOP ( 'NONE', ( #128 ) ) ;
#60 = APPROVAL_ROLE ( '' ) ;
#61 = FACE_OUTER_BOUND ( 'NONE', #204, .T. ) ;
#62 = APPROVAL_STATUS ( 'not_yet_approved' ) ;
#63 = AXIS2_PLACEMENT_3D ( 'NONE', #92, #166, #8 ) ;
#64 = CARTESIAN_POINT ( 'NONE',  ( 1.047444401652940007E-13, 0.6499999999999962474, 30.00000000000000000 ) ) ;
#65 = EDGE_CURVE ( 'NONE', #155, #155, #190, .T. ) ;
#66 = PLANE ( 'NONE',  #89 ) ;
#67 = FACE_OUTER_BOUND ( 'NONE', #84, .T. ) ;
#68 = CC_DESIGN_APPROVAL ( #33, ( #21 ) ) ;
#69 = ORIENTED_EDGE ( 'NONE', *, *, #27, .T. ) ;
#70 = SHAPE_DEFINITION_REPRESENTATION ( #1, #196 ) ;
#71 = AXIS2_PLACEMENT_3D ( 'NONE', #124, #201, #103 ) ;
#72 = FACE_OUTER_BOUND ( 'NONE', #198, .T. ) ;
#73 = CARTESIAN_POINT ( 'NONE',  ( 0.0000000000000000000, 0.0000000000000000000, 0.0000000000000000000 ) ) ;
#74 = CIRCLE ( 'NONE', #208, 0.6500000000000000222 ) ;
#75 = FACE_OUTER_BOUND ( 'NONE', #191, .T. ) ;
#76 = DATE_AND_TIME ( #141, #40 ) ;
#77 = COORDINATED_UNIVERSAL_TIME_OFFSET ( 1, 0, .AHEAD. ) ;
#78 = DATE_AND_TIME ( #120, #16 ) ;
#79 = CARTESIAN_POINT ( 'NONE',  ( 1.047444401652940007E-13, -3.673940397442059178E-15, 30.00000000000000000 ) ) ;
#80 = PERSON_AND_ORGANIZATION ( #98, #177 ) ;
#81 = AXIS2_PLACEMENT_3D ( 'NONE', #132, #6, #178 ) ;
#82 = DIRECTION ( 'NONE',  ( 3.491481338843133355E-15, -1.224646799147353207E-16, 1.000000000000000000 ) ) ;
#83 = CARTESIAN_POINT ( 'NONE',  ( 1.043952920314096810E-13, -3.661693929450586610E-15, 29.89999999999999858 ) ) ;
#84 = EDGE_LOOP ( 'NONE', ( #87 ) ) ;
#85 = ADVANCED_FACE ( 'NONE', ( #47, #209 ), #184, .T. ) ;
#86 = AXIS2_PLACEMENT_3D ( 'NONE', #116, #11, #94 ) ;
#87 = ORIENTED_EDGE ( 'NONE', *, *, #27, .F. ) ;
#88 = ORIENTED_EDGE ( 'NONE', *, *, #5, .F. ) ;
#89 = AXIS2_PLACEMENT_3D ( 'NONE', #53, #82, #32 ) ;
#90 = APPROVAL_DATE_TIME ( #45, #146 ) ;
#91 = ADVANCED_FACE ( 'NONE', ( #75, #72 ), #195, .T. ) ;
#92 = CARTESIAN_POINT ( 'NONE',  ( 2.199633243471174329E-14, -7.715274834628326364E-16, 6.300000000000000711 ) ) ;
#93 = CLOSED_SHELL ( 'NONE', ( #165, #85, #176, #22, #48 ) ) ;
#94 = DIRECTION ( 'NONE',  ( 0.0000000000000000000, -1.000000000000000000, 0.0000000000000000000 ) ) ;
#95 = PERSON_AND_ORGANIZATION ( #98, #177 ) ;
#96 = FACE_OUTER_BOUND ( 'NONE', #129, .T. ) ;
#97 = ORIENTED_EDGE ( 'NONE', *, *, #65, .F. ) ;
#98 = PERSON ( 'UNSPECIFIED', 'UNSPECIFIED', 'UNSPECIFIED', ('UNSPECIFIED'), ('UNSPECIFIED'), ('UNSPECIFIED') ) ;
#99 = CC_DESIGN_PERSON_AND_ORGANIZATION_ASSIGNMENT ( #106, #175, ( #193 ) ) ;
#100 = CYLINDRICAL_SURFACE ( 'NONE', #212, 0.7499999999999985567 ) ;
#101 = APPLICATION_PROTOCOL_DEFINITION ( 'international standard', 'config_control_design', 1994, #202 ) ;
#102 = APPROVAL_ROLE ( '' ) ;
#103 = DIRECTION ( 'NONE',  ( 0.0000000000000000000, 1.000000000000000000, 0.0000000000000000000 ) ) ;
#104 = DIRECTION ( 'NONE',  ( 4.275831445896959482E-31, 1.000000000000000000, 1.224646799147353454E-16 ) ) ;
#105 = ORIENTED_EDGE ( 'NONE', *, *, #5, .T. ) ;
#106 = PERSON_AND_ORGANIZATION ( #98, #177 ) ;
#107 = EDGE_LOOP ( 'NONE', ( #105 ) ) ;
#108 = EDGE_LOOP ( 'NONE', ( #88 ) ) ;
#109 = AXIS2_PLACEMENT_3D ( 'NONE', #83, #221, #55 ) ;
#110 = EDGE_LOOP ( 'NONE', ( #182 ) ) ;
#111 = EDGE_CURVE ( 'NONE', #203, #203, #206, .T. ) ;
#112 = ADVANCED_FACE ( 'NONE', ( #118 ), #12, .T. ) ;
#113 = APPROVAL_STATUS ( 'not_yet_approved' ) ;
#114 = DIRECTION ( 'NONE',  ( 4.275831445896958607E-31, 1.000000000000000000, 1.224646799147353207E-16 ) ) ;
#115 = PERSON_AND_ORGANIZATION ( #98, #177 ) ;
#116 = CARTESIAN_POINT ( 'NONE',  ( 2.396174493329209586E-14, -8.404648739799518336E-16, 6.862916512459888096 ) ) ;
#117 =( NAMED_UNIT ( * ) PLANE_ANGLE_UNIT ( ) SI_UNIT ( $, .RADIAN. ) );
#118 = FACE_OUTER_BOUND ( 'NONE', #110, .T. ) ;
#119 = DATE_AND_TIME ( #151, #168 ) ;
#120 = CALENDAR_DATE ( 2021, 8, 10 ) ;
#121 =( GEOMETRIC_REPRESENTATION_CONTEXT ( 3 ) GLOBAL_UNCERTAINTY_ASSIGNED_CONTEXT ( ( #41 ) ) GLOBAL_UNIT_ASSIGNED_CONTEXT ( ( #223, #117, #186 ) ) REPRESENTATION_CONTEXT ( 'NONE', 'WORKASPACE' ) );
#122 = CARTESIAN_POINT ( 'NONE',  ( 1.047444401652940007E-13, 4.874219293650981803E-33, 30.00000000000000000 ) ) ;
#123 = CALENDAR_DATE ( 2021, 8, 10 ) ;
#124 = CARTESIAN_POINT ( 'NONE',  ( 2.199633243471174329E-14, -7.715274834628326364E-16, 6.300000000000000711 ) ) ;
#125 = DIRECTION ( 'NONE',  ( -4.531599869146445287E-31, -1.000000000000000000, -1.275531967630007464E-16 ) ) ;
#126 = FACE_OUTER_BOUND ( 'NONE', #108, .T. ) ;
#127 = PERSON_AND_ORGANIZATION_ROLE ( 'design_supplier' ) ;
#128 = ORIENTED_EDGE ( 'NONE', *, *, #138, .T. ) ;
#129 = EDGE_LOOP ( 'NONE', ( #57 ) ) ;
#130 = APPROVAL ( #113, 'UNSPECIFIED' ) ;
#131 = LOCAL_TIME ( 10, 11, 33.00000000000000000, #77 ) ;
#132 = CARTESIAN_POINT ( 'NONE',  ( 1.047444401652940007E-13, -3.673940397442059178E-15, 30.00000000000000000 ) ) ;
#133 = EDGE_CURVE ( 'NONE', #17, #17, #148, .T. ) ;
#134 = APPROVAL_PERSON_ORGANIZATION ( #217, #146, #102 ) ;
#135 = DIRECTION ( 'NONE',  ( -3.491481338843133355E-15, 1.224646799147353207E-16, -1.000000000000000000 ) ) ;
#136 = AXIS2_PLACEMENT_3D ( 'NONE', #162, #44, #149 ) ;
#137 = DIRECTION ( 'NONE',  ( 4.531599869146445287E-31, 1.000000000000000000, 1.275531967630007464E-16 ) ) ;
#138 = EDGE_CURVE ( 'NONE', #218, #218, #74, .T. ) ;
#139 = COORDINATED_UNIVERSAL_TIME_OFFSET ( 1, 0, .AHEAD. ) ;
#140 = DESIGN_CONTEXT ( 'detailed design', #202, 'design' ) ;
#141 = CALENDAR_DATE ( 2021, 8, 10 ) ;
#142 = DIRECTION ( 'NONE',  ( 0.0000000000000000000, 1.000000000000000000, 0.0000000000000000000 ) ) ;
#143 = CC_DESIGN_PERSON_AND_ORGANIZATION_ASSIGNMENT ( #56, #127, ( #21 ) ) ;
#144 = MANIFOLD_SOLID_BREP ( 'Corps-Déplacer/Copier1[2]', #19 ) ;
#145 = DIRECTION ( 'NONE',  ( -4.275831445896958607E-31, -1.000000000000000000, -1.224646799147353207E-16 ) ) ;
#146 = APPROVAL ( #62, 'UNSPECIFIED' ) ;
#147 = APPROVAL_ROLE ( '' ) ;
#148 = CIRCLE ( 'NONE', #71, 0.4250000000000003775 ) ;
#149 = DIRECTION ( 'NONE',  ( 4.275831445896958607E-31, 1.000000000000000000, 1.224646799147353207E-16 ) ) ;
#150 = APPROVAL_DATE_TIME ( #13, #130 ) ;
#151 = CALENDAR_DATE ( 2021, 8, 10 ) ;
#152 = CARTESIAN_POINT ( 'NONE',  ( 2.199633243471174329E-14, 0.4249999999999996003, 6.300000000000000711 ) ) ;
#153 = CALENDAR_DATE ( 2021, 8, 10 ) ;
#154 = APPROVAL_PERSON_ORGANIZATION ( #95, #33, #60 ) ;
#155 = VERTEX_POINT ( 'NONE', #157 ) ;
#156 = ORIENTED_EDGE ( 'NONE', *, *, #111, .F. ) ;
#157 = CARTESIAN_POINT ( 'NONE',  ( 2.199633243471174329E-14, 0.4249999999999996003, 6.300000000000000711 ) ) ;
#158 = PRODUCT_DEFINITION ( 'UNKNOWN', '', #21, #140 ) ;
#159 = EDGE_LOOP ( 'NONE', ( #20 ) ) ;
#160 = PRODUCT ( '55685', '55685', '', ( #213 ) ) ;
#161 = AXIS2_PLACEMENT_3D ( 'NONE', #179, #214, #137 ) ;
#162 = CARTESIAN_POINT ( 'NONE',  ( 0.0000000000000000000, 0.0000000000000000000, 0.0000000000000000000 ) ) ;
#163 = PLANE ( 'NONE',  #167 ) ;
#164 = PERSON_AND_ORGANIZATION_ROLE ( 'design_owner' ) ;
#165 = ADVANCED_FACE ( 'NONE', ( #15 ), #66, .F. ) ;
#166 = DIRECTION ( 'NONE',  ( -3.491481338843133355E-15, 1.224646799147353207E-16, -1.000000000000000000 ) ) ;
#167 = AXIS2_PLACEMENT_3D ( 'NONE', #122, #135, #114 ) ;
#168 = LOCAL_TIME ( 10, 11, 33.00000000000000000, #139 ) ;
#169 = EDGE_LOOP ( 'NONE', ( #69 ) ) ;
#170 = DIRECTION ( 'NONE',  ( -3.491481338843133355E-15, 1.224646799147353207E-16, -1.000000000000000000 ) ) ;
#171 = FACE_OUTER_BOUND ( 'NONE', #107, .T. ) ;
#172 = AXIS2_PLACEMENT_3D ( 'NONE', #185, #180, #145 ) ;
#173 = CC_DESIGN_APPROVAL ( #146, ( #193 ) ) ;
#174 = CARTESIAN_POINT ( 'NONE',  ( 8.567182686119547274E-16, 0.4249999999999992117, 0.2453738644055933893 ) ) ;
#175 = PERSON_AND_ORGANIZATION_ROLE ( 'classification_officer' ) ;
#176 = ADVANCED_FACE ( 'NONE', ( #67, #171 ), #100, .T. ) ;
#177 = ORGANIZATION ( 'UNSPECIFIED', 'UNSPECIFIED', '' ) ;
#178 = DIRECTION ( 'NONE',  ( 0.0000000000000000000, 1.000000000000000000, 0.0000000000000000000 ) ) ;
#179 = CARTESIAN_POINT ( 'NONE',  ( 8.567182686119545301E-16, -3.004963176387265389E-17, 0.2453738644055933338 ) ) ;
#180 = DIRECTION ( 'NONE',  ( 3.491481338843133355E-15, -1.224646799147353207E-16, 1.000000000000000000 ) ) ;
#181 = COORDINATED_UNIVERSAL_TIME_OFFSET ( 1, 0, .AHEAD. ) ;
#182 = ORIENTED_EDGE ( 'NONE', *, *, #111, .T. ) ;
#183 = CARTESIAN_POINT ( 'NONE',  ( 8.567182686119545301E-16, -3.004963176387265389E-17, 0.2453738644055933338 ) ) ;
#184 = CONICAL_SURFACE ( 'NONE', #86, 0.7499999999999972244, 0.5235987755982931535 ) ;
#185 = CARTESIAN_POINT ( 'NONE',  ( 2.199633243471174014E-14, 3.186989538156439206E-33, 6.299999999999999822 ) ) ;
#186 =( NAMED_UNIT ( * ) SI_UNIT ( $, .STERADIAN. ) SOLID_ANGLE_UNIT ( ) );
#187 = CARTESIAN_POINT ( 'NONE',  ( 1.043952920314096810E-13, 0.7499999999999963363, 29.89999999999999858 ) ) ;
#188 = CARTESIAN_POINT ( 'NONE',  ( 2.396174493329209586E-14, 0.7499999999999963363, 6.862916512459888096 ) ) ;
#189 = FACE_BOUND ( 'NONE', #59, .T. ) ;
#190 = CIRCLE ( 'NONE', #63, 0.4250000000000003775 ) ;
#191 = EDGE_LOOP ( 'NONE', ( #156 ) ) ;
#192 = AXIS2_PLACEMENT_3D ( 'NONE', #183, #28, #125 ) ;
#193 = SECURITY_CLASSIFICATION ( '', '', #37 ) ;
#194 = CC_DESIGN_PERSON_AND_ORGANIZATION_ASSIGNMENT ( #80, #164, ( #160 ) ) ;
#195 = CYLINDRICAL_SURFACE ( 'NONE', #136, 0.4249999999999998224 ) ;
#196 = ADVANCED_BREP_SHAPE_REPRESENTATION ( '55685', ( #222, #144, #50 ), #121 ) ;
#197 = DIRECTION ( 'NONE',  ( 0.0000000000000000000, 0.0000000000000000000, 1.000000000000000000 ) ) ;
#198 = EDGE_LOOP ( 'NONE', ( #36 ) ) ;
#199 = CONICAL_SURFACE ( 'NONE', #81, 0.6500000000000000222, 0.7853981633974516097 ) ;
#200 = APPROVAL_DATE_TIME ( #119, #33 ) ;
#201 = DIRECTION ( 'NONE',  ( -3.491481338843133355E-15, 1.224646799147353207E-16, -1.000000000000000000 ) ) ;
#202 = APPLICATION_CONTEXT ( 'configuration controlled 3d designs of mechanical parts and assemblies' ) ;
#203 = VERTEX_POINT ( 'NONE', #174 ) ;
#204 = EDGE_LOOP ( 'NONE', ( #18 ) ) ;
#205 = CC_DESIGN_APPROVAL ( #130, ( #158 ) ) ;
#206 = CIRCLE ( 'NONE', #161, 0.4249999999999992673 ) ;
#207 = PRODUCT_RELATED_PRODUCT_CATEGORY ( 'detail', '', ( #160 ) ) ;
#208 = AXIS2_PLACEMENT_3D ( 'NONE', #79, #170, #142 ) ;
#209 = FACE_OUTER_BOUND ( 'NONE', #169, .T. ) ;
#210 = CC_DESIGN_DATE_AND_TIME_ASSIGNMENT ( #76, #24, ( #158 ) ) ;
#211 = DIRECTION ( 'NONE',  ( 1.000000000000000000, 0.0000000000000000000, 0.0000000000000000000 ) ) ;
#212 = AXIS2_PLACEMENT_3D ( 'NONE', #30, #34, #104 ) ;
#213 = MECHANICAL_CONTEXT ( 'NONE', #26, 'mechanical' ) ;
#214 = DIRECTION ( 'NONE',  ( -3.491481338843133355E-15, 1.224646799147353207E-16, -1.000000000000000000 ) ) ;
#215 = APPROVAL_STATUS ( 'not_yet_approved' ) ;
#216 = CC_DESIGN_PERSON_AND_ORGANIZATION_ASSIGNMENT ( #52, #31, ( #21 ) ) ;
#217 = PERSON_AND_ORGANIZATION ( #98, #177 ) ;
#218 = VERTEX_POINT ( 'NONE', #64 ) ;
#219 = APPROVAL_PERSON_ORGANIZATION ( #23, #130, #147 ) ;
#220 = VERTEX_POINT ( 'NONE', #187 ) ;
#221 = DIRECTION ( 'NONE',  ( -3.491481338843133355E-15, 1.224646799147353207E-16, -1.000000000000000000 ) ) ;
#222 = MANIFOLD_SOLID_BREP ( 'Corps-Déplacer/Copier1[1]', #93 ) ;
#223 =( LENGTH_UNIT ( ) NAMED_UNIT ( * ) SI_UNIT ( .MILLI., .METRE. ) );
ENDSEC;
END-ISO-10303-21;
