ISO-10303-21;
HEADER;
FILE_DESCRIPTION (( 'STEP AP203' ),
    '1' );
FILE_NAME ('55683.step',
    '2021-10-08T08:11:29',
    ( '' ),
    ( '' ),
    'SwSTEP 2.0',
    'SolidWorks 2019',
    '' );
FILE_SCHEMA (( 'CONFIG_CONTROL_DESIGN' ));
ENDSEC;

DATA;
#1 = PLANE ( 'NONE',  #134 ) ;
#2 = CARTESIAN_POINT ( 'NONE',  ( 1.047444401652940007E-13, -3.673940397442059178E-15, 30.00000000000000000 ) ) ;
#3 = DIRECTION ( 'NONE',  ( 0.0000000000000000000, 1.000000000000000000, 0.0000000000000000000 ) ) ;
#4 = FACE_BOUND ( 'NONE', #73, .T. ) ;
#5 = AXIS2_PLACEMENT_3D ( 'NONE', #122, #7, #159 ) ;
#6 =( GEOMETRIC_REPRESENTATION_CONTEXT ( 3 ) GLOBAL_UNCERTAINTY_ASSIGNED_CONTEXT ( ( #203 ) ) GLOBAL_UNIT_ASSIGNED_CONTEXT ( ( #46, #48, #165 ) ) REPRESENTATION_CONTEXT ( 'NONE', 'WORKASPACE' ) );
#7 = DIRECTION ( 'NONE',  ( -3.491481338843133355E-15, 1.224646799147353207E-16, -1.000000000000000000 ) ) ;
#8 = DATE_AND_TIME ( #183, #204 ) ;
#9 = CARTESIAN_POINT ( 'NONE',  ( 1.047444401652940007E-13, 0.6499999999999962474, 30.00000000000000000 ) ) ;
#10 = DATE_TIME_ROLE ( 'classification_date' ) ;
#11 = CONICAL_SURFACE ( 'NONE', #45, 0.3999999999999993561, 1.047197551196592746 ) ;
#12 = PERSON_AND_ORGANIZATION_ROLE ( 'creator' ) ;
#13 = ORIENTED_EDGE ( 'NONE', *, *, #65, .F. ) ;
#14 = CALENDAR_DATE ( 2021, 8, 10 ) ;
#15 = COORDINATED_UNIVERSAL_TIME_OFFSET ( 1, 0, .AHEAD. ) ;
#16 = EDGE_LOOP ( 'NONE', ( #195 ) ) ;
#17 = CC_DESIGN_PERSON_AND_ORGANIZATION_ASSIGNMENT ( #56, #103, ( #55 ) ) ;
#18 = PLANE ( 'NONE',  #211 ) ;
#19 = ORIENTED_EDGE ( 'NONE', *, *, #65, .T. ) ;
#20 = ADVANCED_FACE ( 'NONE', ( #152, #59 ), #94, .T. ) ;
#21 = APPROVAL_DATE_TIME ( #188, #129 ) ;
#22 = DIRECTION ( 'NONE',  ( -3.491481338843133355E-15, 1.224646799147353207E-16, -1.000000000000000000 ) ) ;
#23 = CLOSED_SHELL ( 'NONE', ( #207, #135, #25, #75, #104 ) ) ;
#24 = DIRECTION ( 'NONE',  ( -3.491481338843133355E-15, 1.224646799147353207E-16, -1.000000000000000000 ) ) ;
#25 = ADVANCED_FACE ( 'NONE', ( #26, #212 ), #96, .T. ) ;
#26 = FACE_OUTER_BOUND ( 'NONE', #32, .T. ) ;
#27 = CALENDAR_DATE ( 2021, 8, 10 ) ;
#28 = CARTESIAN_POINT ( 'NONE',  ( 1.043952920314096810E-13, 0.7499999999999963363, 29.89999999999999858 ) ) ;
#29 = COORDINATED_UNIVERSAL_TIME_OFFSET ( 1, 0, .AHEAD. ) ;
#30 = EDGE_CURVE ( 'NONE', #164, #164, #54, .T. ) ;
#31 = APPLICATION_PROTOCOL_DEFINITION ( 'international standard', 'config_control_design', 1994, #62 ) ;
#32 = EDGE_LOOP ( 'NONE', ( #116 ) ) ;
#33 = LOCAL_TIME ( 10, 11, 29.00000000000000000, #29 ) ;
#34 = PERSON_AND_ORGANIZATION_ROLE ( 'design_supplier' ) ;
#35 = MANIFOLD_SOLID_BREP ( 'Corps-Déplacer/Copier1[2]', #76 ) ;
#36 = AXIS2_PLACEMENT_3D ( 'NONE', #213, #43, #37 ) ;
#37 = DIRECTION ( 'NONE',  ( 4.275831445896958607E-31, 1.000000000000000000, 1.224646799147353207E-16 ) ) ;
#38 = CC_DESIGN_DATE_AND_TIME_ASSIGNMENT ( #200, #218, ( #140 ) ) ;
#39 = DIRECTION ( 'NONE',  ( -3.491481338843133355E-15, 1.224646799147353207E-16, -1.000000000000000000 ) ) ;
#40 = CC_DESIGN_APPROVAL ( #95, ( #140 ) ) ;
#41 = DIRECTION ( 'NONE',  ( -4.814824860968097515E-31, -1.000000000000000000, -1.355252715606882761E-16 ) ) ;
#42 = FACE_OUTER_BOUND ( 'NONE', #89, .T. ) ;
#43 = DIRECTION ( 'NONE',  ( -3.491481338843133355E-15, 1.224646799147353207E-16, -1.000000000000000000 ) ) ;
#44 = APPROVAL_STATUS ( 'not_yet_approved' ) ;
#45 = AXIS2_PLACEMENT_3D ( 'NONE', #61, #125, #41 ) ;
#46 =( LENGTH_UNIT ( ) NAMED_UNIT ( * ) SI_UNIT ( .MILLI., .METRE. ) );
#47 = APPROVAL_STATUS ( 'not_yet_approved' ) ;
#48 =( NAMED_UNIT ( * ) PLANE_ANGLE_UNIT ( ) SI_UNIT ( $, .RADIAN. ) );
#49 = CC_DESIGN_PERSON_AND_ORGANIZATION_ASSIGNMENT ( #119, #34, ( #55 ) ) ;
#50 = PERSON_AND_ORGANIZATION ( #98, #187 ) ;
#51 = AXIS2_PLACEMENT_3D ( 'NONE', #144, #80, #82 ) ;
#52 = ORIENTED_EDGE ( 'NONE', *, *, #181, .T. ) ;
#53 = APPLICATION_CONTEXT ( 'configuration controlled 3d designs of mechanical parts and assemblies' ) ;
#54 = CIRCLE ( 'NONE', #5, 0.4000000000000000777 ) ;
#55 = PRODUCT_DEFINITION_FORMATION_WITH_SPECIFIED_SOURCE ( 'ANY', '', #216, .NOT_KNOWN. ) ;
#56 = PERSON_AND_ORGANIZATION ( #98, #187 ) ;
#57 = EDGE_LOOP ( 'NONE', ( #220 ) ) ;
#58 = APPROVAL_PERSON_ORGANIZATION ( #71, #129, #101 ) ;
#59 = FACE_OUTER_BOUND ( 'NONE', #202, .T. ) ;
#60 = CARTESIAN_POINT ( 'NONE',  ( 1.047444401652940007E-13, -3.673940397442059178E-15, 30.00000000000000000 ) ) ;
#61 = CARTESIAN_POINT ( 'NONE',  ( 8.063230763406631858E-16, -2.828200636599779588E-17, 0.2309401076758526017 ) ) ;
#62 = APPLICATION_CONTEXT ( 'configuration controlled 3d designs of mechanical parts and assemblies' ) ;
#63 = DIRECTION ( 'NONE',  ( -3.491481338843133355E-15, 1.224646799147353207E-16, -1.000000000000000000 ) ) ;
#64 = DIRECTION ( 'NONE',  ( -3.491481338843133355E-15, 1.224646799147353207E-16, -1.000000000000000000 ) ) ;
#65 = EDGE_CURVE ( 'NONE', #198, #198, #84, .T. ) ;
#66 = CARTESIAN_POINT ( 'NONE',  ( 2.199633243471174014E-14, 2.999519565323704610E-33, 6.299999999999999822 ) ) ;
#67 = LOCAL_TIME ( 10, 11, 29.00000000000000000, #151 ) ;
#68 = VERTEX_POINT ( 'NONE', #9 ) ;
#69 = EDGE_LOOP ( 'NONE', ( #90 ) ) ;
#70 = PERSON_AND_ORGANIZATION ( #98, #187 ) ;
#71 = PERSON_AND_ORGANIZATION ( #98, #187 ) ;
#72 = AXIS2_PLACEMENT_3D ( 'NONE', #210, #22, #93 ) ;
#73 = EDGE_LOOP ( 'NONE', ( #168 ) ) ;
#74 = DIRECTION ( 'NONE',  ( 0.0000000000000000000, 0.0000000000000000000, 1.000000000000000000 ) ) ;
#75 = ADVANCED_FACE ( 'NONE', ( #42, #145 ), #124, .T. ) ;
#76 = CLOSED_SHELL ( 'NONE', ( #192, #20, #157 ) ) ;
#77 = AXIS2_PLACEMENT_3D ( 'NONE', #99, #74, #131 ) ;
#78 = CALENDAR_DATE ( 2021, 8, 10 ) ;
#79 = DIRECTION ( 'NONE',  ( -4.275831445896958607E-31, -1.000000000000000000, -1.224646799147353207E-16 ) ) ;
#80 = DIRECTION ( 'NONE',  ( -3.491481338843133355E-15, 1.224646799147353207E-16, -1.000000000000000000 ) ) ;
#81 = CIRCLE ( 'NONE', #105, 0.3999999999999993561 ) ;
#82 = DIRECTION ( 'NONE',  ( 4.275831445896958607E-31, 1.000000000000000000, 1.224646799147353207E-16 ) ) ;
#83 = PERSON_AND_ORGANIZATION ( #98, #187 ) ;
#84 = CIRCLE ( 'NONE', #120, 0.4000000000000000777 ) ;
#85 = CARTESIAN_POINT ( 'NONE',  ( 2.199633243471174014E-14, 0.3999999999999993006, 6.299999999999999822 ) ) ;
#86 = EDGE_LOOP ( 'NONE', ( #205 ) ) ;
#87 = CARTESIAN_POINT ( 'NONE',  ( 8.063230763406633830E-16, 0.3999999999999993006, 0.2309401076758526572 ) ) ;
#88 = CALENDAR_DATE ( 2021, 8, 10 ) ;
#89 = EDGE_LOOP ( 'NONE', ( #139 ) ) ;
#90 = ORIENTED_EDGE ( 'NONE', *, *, #166, .F. ) ;
#91 = DIRECTION ( 'NONE',  ( 0.0000000000000000000, 1.000000000000000000, 0.0000000000000000000 ) ) ;
#92 = SHAPE_DEFINITION_REPRESENTATION ( #222, #174 ) ;
#93 = DIRECTION ( 'NONE',  ( 0.0000000000000000000, 1.000000000000000000, 0.0000000000000000000 ) ) ;
#94 = CYLINDRICAL_SURFACE ( 'NONE', #51, 0.3999999999999997446 ) ;
#95 = APPROVAL ( #47, 'UNSPECIFIED' ) ;
#96 = CYLINDRICAL_SURFACE ( 'NONE', #177, 0.7499999999999985567 ) ;
#97 = DATE_AND_TIME ( #27, #106 ) ;
#98 = PERSON ( 'UNSPECIFIED', 'UNSPECIFIED', 'UNSPECIFIED', ('UNSPECIFIED'), ('UNSPECIFIED'), ('UNSPECIFIED') ) ;
#99 = CARTESIAN_POINT ( 'NONE',  ( 0.0000000000000000000, 0.0000000000000000000, 0.0000000000000000000 ) ) ;
#100 = APPROVAL_STATUS ( 'not_yet_approved' ) ;
#101 = APPROVAL_ROLE ( '' ) ;
#102 = APPROVAL_PERSON_ORGANIZATION ( #70, #95, #167 ) ;
#103 = PERSON_AND_ORGANIZATION_ROLE ( 'creator' ) ;
#104 = ADVANCED_FACE ( 'NONE', ( #126 ), #208, .F. ) ;
#105 = AXIS2_PLACEMENT_3D ( 'NONE', #141, #206, #175 ) ;
#106 = LOCAL_TIME ( 10, 11, 29.00000000000000000, #112 ) ;
#107 = DIRECTION ( 'NONE',  ( 3.491481338843133355E-15, -1.224646799147353207E-16, 1.000000000000000000 ) ) ;
#108 = FACE_OUTER_BOUND ( 'NONE', #57, .T. ) ;
#109 = MANIFOLD_SOLID_BREP ( 'Corps-Déplacer/Copier1[1]', #23 ) ;
#110 = CARTESIAN_POINT ( 'NONE',  ( 0.0000000000000000000, 0.0000000000000000000, 0.0000000000000000000 ) ) ;
#111 = PRODUCT_RELATED_PRODUCT_CATEGORY ( 'detail', '', ( #216 ) ) ;
#112 = COORDINATED_UNIVERSAL_TIME_OFFSET ( 1, 0, .AHEAD. ) ;
#113 = COORDINATED_UNIVERSAL_TIME_OFFSET ( 1, 0, .AHEAD. ) ;
#114 = PERSON_AND_ORGANIZATION_ROLE ( 'classification_officer' ) ;
#115 = LOCAL_TIME ( 10, 11, 29.00000000000000000, #15 ) ;
#116 = ORIENTED_EDGE ( 'NONE', *, *, #171, .F. ) ;
#117 = SECURITY_CLASSIFICATION ( '', '', #172 ) ;
#118 = CC_DESIGN_PERSON_AND_ORGANIZATION_ASSIGNMENT ( #83, #12, ( #140 ) ) ;
#119 = PERSON_AND_ORGANIZATION ( #98, #187 ) ;
#120 = AXIS2_PLACEMENT_3D ( 'NONE', #176, #64, #91 ) ;
#121 = CIRCLE ( 'NONE', #182, 0.7500000000000000000 ) ;
#122 = CARTESIAN_POINT ( 'NONE',  ( 2.199633243471174014E-14, -7.715274834628325378E-16, 6.299999999999999822 ) ) ;
#123 = DIRECTION ( 'NONE',  ( 0.0000000000000000000, 1.000000000000000000, 0.0000000000000000000 ) ) ;
#124 = CONICAL_SURFACE ( 'NONE', #169, 0.6500000000000000222, 0.7853981633974516097 ) ;
#125 = DIRECTION ( 'NONE',  ( 3.491481338843133355E-15, -1.224646799147353207E-16, 1.000000000000000000 ) ) ;
#126 = FACE_OUTER_BOUND ( 'NONE', #86, .T. ) ;
#127 = DIRECTION ( 'NONE',  ( -4.275831445896958607E-31, -1.000000000000000000, -1.224646799147353207E-16 ) ) ;
#128 = AXIS2_PLACEMENT_3D ( 'NONE', #60, #39, #123 ) ;
#129 = APPROVAL ( #44, 'UNSPECIFIED' ) ;
#130 = APPLICATION_PROTOCOL_DEFINITION ( 'international standard', 'config_control_design', 1994, #53 ) ;
#131 = DIRECTION ( 'NONE',  ( 1.000000000000000000, 0.0000000000000000000, 0.0000000000000000000 ) ) ;
#132 = ORIENTED_EDGE ( 'NONE', *, *, #166, .T. ) ;
#133 = PERSON_AND_ORGANIZATION ( #98, #187 ) ;
#134 = AXIS2_PLACEMENT_3D ( 'NONE', #158, #189, #79 ) ;
#135 = ADVANCED_FACE ( 'NONE', ( #4, #108 ), #150, .T. ) ;
#136 = APPROVAL_PERSON_ORGANIZATION ( #133, #215, #149 ) ;
#137 = EDGE_LOOP ( 'NONE', ( #132 ) ) ;
#138 = CARTESIAN_POINT ( 'NONE',  ( 2.199633243471174014E-14, 0.3999999999999993006, 6.299999999999999822 ) ) ;
#139 = ORIENTED_EDGE ( 'NONE', *, *, #181, .F. ) ;
#140 = PRODUCT_DEFINITION ( 'UNKNOWN', '', #55, #209 ) ;
#141 = CARTESIAN_POINT ( 'NONE',  ( 8.063230763406631858E-16, -2.828200636599779588E-17, 0.2309401076758526017 ) ) ;
#142 = DIRECTION ( 'NONE',  ( 4.275831445896959482E-31, 1.000000000000000000, 1.224646799147353454E-16 ) ) ;
#143 = FACE_OUTER_BOUND ( 'NONE', #137, .T. ) ;
#144 = CARTESIAN_POINT ( 'NONE',  ( 0.0000000000000000000, 0.0000000000000000000, 0.0000000000000000000 ) ) ;
#145 = FACE_BOUND ( 'NONE', #199, .T. ) ;
#146 = APPROVAL_DATE_TIME ( #97, #215 ) ;
#147 = CARTESIAN_POINT ( 'NONE',  ( 2.411293051010596792E-14, 0.7499999999999963363, 6.906217782649109793 ) ) ;
#148 = ORIENTED_EDGE ( 'NONE', *, *, #178, .T. ) ;
#149 = APPROVAL_ROLE ( '' ) ;
#150 = CONICAL_SURFACE ( 'NONE', #196, 0.7499999999999972244, 0.5235987755982934866 ) ;
#151 = COORDINATED_UNIVERSAL_TIME_OFFSET ( 1, 0, .AHEAD. ) ;
#152 = FACE_OUTER_BOUND ( 'NONE', #69, .T. ) ;
#153 = CC_DESIGN_PERSON_AND_ORGANIZATION_ASSIGNMENT ( #50, #114, ( #117 ) ) ;
#154 = FACE_OUTER_BOUND ( 'NONE', #223, .T. ) ;
#155 = CC_DESIGN_APPROVAL ( #215, ( #55 ) ) ;
#156 = DIRECTION ( 'NONE',  ( 0.0000000000000000000, -1.000000000000000000, 0.0000000000000000000 ) ) ;
#157 = ADVANCED_FACE ( 'NONE', ( #154 ), #1, .T. ) ;
#158 = CARTESIAN_POINT ( 'NONE',  ( 2.199633243471174014E-14, 2.999519565323704610E-33, 6.299999999999999822 ) ) ;
#159 = DIRECTION ( 'NONE',  ( 0.0000000000000000000, 1.000000000000000000, 0.0000000000000000000 ) ) ;
#160 = CIRCLE ( 'NONE', #72, 0.7499999999999972244 ) ;
#161 = DIRECTION ( 'NONE',  ( -3.491481338843133355E-15, 1.224646799147353207E-16, -1.000000000000000000 ) ) ;
#162 = CC_DESIGN_DATE_AND_TIME_ASSIGNMENT ( #219, #10, ( #117 ) ) ;
#163 = VERTEX_POINT ( 'NONE', #147 ) ;
#164 = VERTEX_POINT ( 'NONE', #138 ) ;
#165 =( NAMED_UNIT ( * ) SI_UNIT ( $, .STERADIAN. ) SOLID_ANGLE_UNIT ( ) );
#166 = EDGE_CURVE ( 'NONE', #221, #221, #81, .T. ) ;
#167 = APPROVAL_ROLE ( '' ) ;
#168 = ORIENTED_EDGE ( 'NONE', *, *, #30, .F. ) ;
#169 = AXIS2_PLACEMENT_3D ( 'NONE', #2, #161, #191 ) ;
#170 = CC_DESIGN_SECURITY_CLASSIFICATION ( #117, ( #55 ) ) ;
#171 = EDGE_CURVE ( 'NONE', #163, #163, #160, .T. ) ;
#172 = SECURITY_CLASSIFICATION_LEVEL ( 'unclassified' ) ;
#173 = CARTESIAN_POINT ( 'NONE',  ( 2.411293051010596792E-14, -8.457677501735763645E-16, 6.906217782649109793 ) ) ;
#174 = ADVANCED_BREP_SHAPE_REPRESENTATION ( '55683', ( #109, #35, #77 ), #6 ) ;
#175 = DIRECTION ( 'NONE',  ( 4.814824860968097515E-31, 1.000000000000000000, 1.355252715606882761E-16 ) ) ;
#176 = CARTESIAN_POINT ( 'NONE',  ( 2.199633243471174014E-14, -7.715274834628325378E-16, 6.299999999999999822 ) ) ;
#177 = AXIS2_PLACEMENT_3D ( 'NONE', #110, #63, #142 ) ;
#178 = EDGE_CURVE ( 'NONE', #68, #68, #186, .T. ) ;
#179 = VERTEX_POINT ( 'NONE', #28 ) ;
#180 = APPROVAL_DATE_TIME ( #8, #95 ) ;
#181 = EDGE_CURVE ( 'NONE', #179, #179, #121, .T. ) ;
#182 = AXIS2_PLACEMENT_3D ( 'NONE', #190, #24, #3 ) ;
#183 = CALENDAR_DATE ( 2021, 8, 10 ) ;
#184 = PERSON_AND_ORGANIZATION ( #98, #187 ) ;
#185 = EDGE_LOOP ( 'NONE', ( #52 ) ) ;
#186 = CIRCLE ( 'NONE', #128, 0.6500000000000000222 ) ;
#187 = ORGANIZATION ( 'UNSPECIFIED', 'UNSPECIFIED', '' ) ;
#188 = DATE_AND_TIME ( #78, #67 ) ;
#189 = DIRECTION ( 'NONE',  ( 3.491481338843133355E-15, -1.224646799147353207E-16, 1.000000000000000000 ) ) ;
#190 = CARTESIAN_POINT ( 'NONE',  ( 1.043952920314096810E-13, -3.661693929450586610E-15, 29.89999999999999858 ) ) ;
#191 = DIRECTION ( 'NONE',  ( 0.0000000000000000000, 1.000000000000000000, 0.0000000000000000000 ) ) ;
#192 = ADVANCED_FACE ( 'NONE', ( #143 ), #11, .T. ) ;
#193 = MECHANICAL_CONTEXT ( 'NONE', #53, 'mechanical' ) ;
#194 = FACE_OUTER_BOUND ( 'NONE', #16, .T. ) ;
#195 = ORIENTED_EDGE ( 'NONE', *, *, #30, .T. ) ;
#196 = AXIS2_PLACEMENT_3D ( 'NONE', #173, #107, #156 ) ;
#197 = CC_DESIGN_APPROVAL ( #129, ( #117 ) ) ;
#198 = VERTEX_POINT ( 'NONE', #85 ) ;
#199 = EDGE_LOOP ( 'NONE', ( #148 ) ) ;
#200 = DATE_AND_TIME ( #14, #33 ) ;
#201 = CC_DESIGN_PERSON_AND_ORGANIZATION_ASSIGNMENT ( #184, #217, ( #216 ) ) ;
#202 = EDGE_LOOP ( 'NONE', ( #19 ) ) ;
#203 = UNCERTAINTY_MEASURE_WITH_UNIT (LENGTH_MEASURE( 1.000000000000000082E-05 ), #46, 'distance_accuracy_value', 'NONE');
#204 = LOCAL_TIME ( 10, 11, 29.00000000000000000, #113 ) ;
#205 = ORIENTED_EDGE ( 'NONE', *, *, #178, .F. ) ;
#206 = DIRECTION ( 'NONE',  ( -3.491481338843133355E-15, 1.224646799147353207E-16, -1.000000000000000000 ) ) ;
#207 = ADVANCED_FACE ( 'NONE', ( #194 ), #18, .F. ) ;
#208 = PLANE ( 'NONE',  #36 ) ;
#209 = DESIGN_CONTEXT ( 'detailed design', #62, 'design' ) ;
#210 = CARTESIAN_POINT ( 'NONE',  ( 2.411293051010596792E-14, -8.457677501735763645E-16, 6.906217782649109793 ) ) ;
#211 = AXIS2_PLACEMENT_3D ( 'NONE', #66, #214, #127 ) ;
#212 = FACE_OUTER_BOUND ( 'NONE', #185, .T. ) ;
#213 = CARTESIAN_POINT ( 'NONE',  ( 1.047444401652940007E-13, 4.874219293650981803E-33, 30.00000000000000000 ) ) ;
#214 = DIRECTION ( 'NONE',  ( 3.491481338843133355E-15, -1.224646799147353207E-16, 1.000000000000000000 ) ) ;
#215 = APPROVAL ( #100, 'UNSPECIFIED' ) ;
#216 = PRODUCT ( '55683', '55683', '', ( #193 ) ) ;
#217 = PERSON_AND_ORGANIZATION_ROLE ( 'design_owner' ) ;
#218 = DATE_TIME_ROLE ( 'creation_date' ) ;
#219 = DATE_AND_TIME ( #88, #115 ) ;
#220 = ORIENTED_EDGE ( 'NONE', *, *, #171, .T. ) ;
#221 = VERTEX_POINT ( 'NONE', #87 ) ;
#222 = PRODUCT_DEFINITION_SHAPE ( 'NONE', 'NONE',  #140 ) ;
#223 = EDGE_LOOP ( 'NONE', ( #13 ) ) ;
ENDSEC;
END-ISO-10303-21;
