ISO-10303-21;
HEADER;
FILE_DESCRIPTION (( 'STEP AP203' ),
    '1' );
FILE_NAME ('55681.step',
    '2021-10-08T08:11:27',
    ( '' ),
    ( '' ),
    'SwSTEP 2.0',
    'SolidWorks 2019',
    '' );
FILE_SCHEMA (( 'CONFIG_CONTROL_DESIGN' ));
ENDSEC;

DATA;
#1 = SECURITY_CLASSIFICATION ( '', '', #69 ) ;
#2 = ORIENTED_EDGE ( 'NONE', *, *, #165, .T. ) ;
#3 = EDGE_LOOP ( 'NONE', ( #70 ) ) ;
#4 = ADVANCED_FACE ( 'NONE', ( #93, #12 ), #108, .T. ) ;
#5 = AXIS2_PLACEMENT_3D ( 'NONE', #92, #194, #8 ) ;
#6 = DIRECTION ( 'NONE',  ( -3.491481338843133355E-15, 1.224646799147353207E-16, -1.000000000000000000 ) ) ;
#7 = CC_DESIGN_PERSON_AND_ORGANIZATION_ASSIGNMENT ( #137, #177, ( #161 ) ) ;
#8 = DIRECTION ( 'NONE',  ( 0.0000000000000000000, 1.000000000000000000, 0.0000000000000000000 ) ) ;
#9 = FACE_OUTER_BOUND ( 'NONE', #3, .T. ) ;
#10 = CC_DESIGN_SECURITY_CLASSIFICATION ( #1, ( #161 ) ) ;
#11 = DIRECTION ( 'NONE',  ( 0.0000000000000000000, -1.000000000000000000, 0.0000000000000000000 ) ) ;
#12 = FACE_OUTER_BOUND ( 'NONE', #53, .T. ) ;
#13 = PERSON_AND_ORGANIZATION_ROLE ( 'creator' ) ;
#14 = AXIS2_PLACEMENT_3D ( 'NONE', #206, #160, #43 ) ;
#15 = APPROVAL_DATE_TIME ( #62, #46 ) ;
#16 = CALENDAR_DATE ( 2021, 8, 10 ) ;
#17 = PERSON_AND_ORGANIZATION ( #166, #54 ) ;
#18 = LOCAL_TIME ( 10, 11, 27.00000000000000000, #150 ) ;
#19 = APPROVAL_DATE_TIME ( #127, #197 ) ;
#20 = APPROVAL_DATE_TIME ( #21, #103 ) ;
#21 = DATE_AND_TIME ( #223, #24 ) ;
#22 = PERSON_AND_ORGANIZATION ( #166, #54 ) ;
#23 = CALENDAR_DATE ( 2021, 8, 10 ) ;
#24 = LOCAL_TIME ( 10, 11, 27.00000000000000000, #85 ) ;
#25 = PLANE ( 'NONE',  #77 ) ;
#26 = DIRECTION ( 'NONE',  ( 4.275831445896958607E-31, 1.000000000000000000, 1.224646799147353207E-16 ) ) ;
#27 = CIRCLE ( 'NONE', #176, 0.4999999999999960032 ) ;
#28 = DIRECTION ( 'NONE',  ( -3.491481338843133355E-15, 1.224646799147353207E-16, -1.000000000000000000 ) ) ;
#29 = CARTESIAN_POINT ( 'NONE',  ( 1.955229549752154679E-14, 2.812049592490967620E-33, 5.599999999999999645 ) ) ;
#30 = CARTESIAN_POINT ( 'NONE',  ( 0.0000000000000000000, 0.0000000000000000000, 0.0000000000000000000 ) ) ;
#31 = CARTESIAN_POINT ( 'NONE',  ( 1.955229549752154679E-14, 0.3749999999999986122, 5.599999999999999645 ) ) ;
#32 =( LENGTH_UNIT ( ) NAMED_UNIT ( * ) SI_UNIT ( .MILLI., .METRE. ) );
#33 = CC_DESIGN_DATE_AND_TIME_ASSIGNMENT ( #155, #100, ( #1 ) ) ;
#34 = AXIS2_PLACEMENT_3D ( 'NONE', #142, #55, #11 ) ;
#35 = PERSON_AND_ORGANIZATION_ROLE ( 'classification_officer' ) ;
#36 = ADVANCED_FACE ( 'NONE', ( #178 ), #25, .F. ) ;
#37 = AXIS2_PLACEMENT_3D ( 'NONE', #159, #6, #210 ) ;
#38 = LOCAL_TIME ( 10, 11, 27.00000000000000000, #201 ) ;
#39 = EDGE_LOOP ( 'NONE', ( #2 ) ) ;
#40 = EDGE_LOOP ( 'NONE', ( #157 ) ) ;
#41 = AXIS2_PLACEMENT_3D ( 'NONE', #124, #195, #182 ) ;
#42 = ORIENTED_EDGE ( 'NONE', *, *, #211, .F. ) ;
#43 = DIRECTION ( 'NONE',  ( 5.135813185032647917E-31, 1.000000000000000000, 1.445602896647344587E-16 ) ) ;
#44 = EDGE_LOOP ( 'NONE', ( #51 ) ) ;
#45 = DIRECTION ( 'NONE',  ( 0.0000000000000000000, 1.000000000000000000, 0.0000000000000000000 ) ) ;
#46 = APPROVAL ( #169, 'UNSPECIFIED' ) ;
#47 = DIRECTION ( 'NONE',  ( 0.0000000000000000000, 0.0000000000000000000, 1.000000000000000000 ) ) ;
#48 = CARTESIAN_POINT ( 'NONE',  ( 1.047444401652940007E-13, 0.3999999999999953038, 30.00000000000000000 ) ) ;
#49 = APPLICATION_PROTOCOL_DEFINITION ( 'international standard', 'config_control_design', 1994, #171 ) ;
#50 = COORDINATED_UNIVERSAL_TIME_OFFSET ( 1, 0, .AHEAD. ) ;
#51 = ORIENTED_EDGE ( 'NONE', *, *, #211, .T. ) ;
#52 = APPROVAL_STATUS ( 'not_yet_approved' ) ;
#53 = EDGE_LOOP ( 'NONE', ( #189 ) ) ;
#54 = ORGANIZATION ( 'UNSPECIFIED', 'UNSPECIFIED', '' ) ;
#55 = DIRECTION ( 'NONE',  ( 3.491481338843133355E-15, -1.224646799147353207E-16, 1.000000000000000000 ) ) ;
#56 = DIRECTION ( 'NONE',  ( -3.491481338843133355E-15, 1.224646799147353207E-16, -1.000000000000000000 ) ) ;
#57 = CIRCLE ( 'NONE', #203, 0.3749999999999992784 ) ;
#58 = CARTESIAN_POINT ( 'NONE',  ( 0.0000000000000000000, 0.0000000000000000000, 0.0000000000000000000 ) ) ;
#59 = CC_DESIGN_PERSON_AND_ORGANIZATION_ASSIGNMENT ( #17, #84, ( #167 ) ) ;
#60 = PLANE ( 'NONE',  #41 ) ;
#61 = DIRECTION ( 'NONE',  ( -3.491481338843133355E-15, 1.224646799147353207E-16, -1.000000000000000000 ) ) ;
#62 = DATE_AND_TIME ( #16, #113 ) ;
#63 = ADVANCED_BREP_SHAPE_REPRESENTATION ( '55681', ( #215, #217, #213 ), #101 ) ;
#64 = CARTESIAN_POINT ( 'NONE',  ( 1.043952920314096936E-13, 0.4999999999999952260, 29.90000000000000213 ) ) ;
#65 = DIRECTION ( 'NONE',  ( 1.000000000000000000, 0.0000000000000000000, 0.0000000000000000000 ) ) ;
#66 = PRODUCT_RELATED_PRODUCT_CATEGORY ( 'detail', '', ( #167 ) ) ;
#67 = APPROVAL_ROLE ( '' ) ;
#68 = PERSON_AND_ORGANIZATION ( #166, #54 ) ;
#69 = SECURITY_CLASSIFICATION_LEVEL ( 'unclassified' ) ;
#70 = ORIENTED_EDGE ( 'NONE', *, *, #202, .F. ) ;
#71 = COORDINATED_UNIVERSAL_TIME_OFFSET ( 1, 0, .AHEAD. ) ;
#72 = DESIGN_CONTEXT ( 'detailed design', #191, 'design' ) ;
#73 = CIRCLE ( 'NONE', #5, 0.3749999999999992784 ) ;
#74 = FACE_BOUND ( 'NONE', #162, .T. ) ;
#75 = DIRECTION ( 'NONE',  ( 0.0000000000000000000, 1.000000000000000000, 0.0000000000000000000 ) ) ;
#76 = DIRECTION ( 'NONE',  ( 4.275831445896958607E-31, 1.000000000000000000, 1.224646799147353207E-16 ) ) ;
#77 = AXIS2_PLACEMENT_3D ( 'NONE', #179, #56, #94 ) ;
#78 = FACE_OUTER_BOUND ( 'NONE', #156, .T. ) ;
#79 = DIRECTION ( 'NONE',  ( -3.491481338843133355E-15, 1.224646799147353207E-16, -1.000000000000000000 ) ) ;
#80 = CALENDAR_DATE ( 2021, 8, 10 ) ;
#81 = PERSON_AND_ORGANIZATION ( #166, #54 ) ;
#82 = VERTEX_POINT ( 'NONE', #64 ) ;
#83 =( NAMED_UNIT ( * ) SI_UNIT ( $, .STERADIAN. ) SOLID_ANGLE_UNIT ( ) );
#84 = PERSON_AND_ORGANIZATION_ROLE ( 'design_owner' ) ;
#85 = COORDINATED_UNIVERSAL_TIME_OFFSET ( 1, 0, .AHEAD. ) ;
#86 = PERSON_AND_ORGANIZATION ( #166, #54 ) ;
#87 = ADVANCED_FACE ( 'NONE', ( #78, #120 ), #183, .T. ) ;
#88 = EDGE_LOOP ( 'NONE', ( #209 ) ) ;
#89 = LOCAL_TIME ( 10, 11, 27.00000000000000000, #71 ) ;
#90 = ORIENTED_EDGE ( 'NONE', *, *, #184, .F. ) ;
#91 = CC_DESIGN_DATE_AND_TIME_ASSIGNMENT ( #148, #214, ( #121 ) ) ;
#92 = CARTESIAN_POINT ( 'NONE',  ( 1.955229549752154679E-14, -6.858022075225177566E-16, 5.599999999999999645 ) ) ;
#93 = FACE_OUTER_BOUND ( 'NONE', #40, .T. ) ;
#94 = DIRECTION ( 'NONE',  ( 4.275831445896958607E-31, 1.000000000000000000, 1.224646799147353207E-16 ) ) ;
#95 = DIRECTION ( 'NONE',  ( 0.0000000000000000000, 1.000000000000000000, 0.0000000000000000000 ) ) ;
#96 = CC_DESIGN_PERSON_AND_ORGANIZATION_ASSIGNMENT ( #86, #116, ( #161 ) ) ;
#97 = APPROVAL_STATUS ( 'not_yet_approved' ) ;
#98 = ADVANCED_FACE ( 'NONE', ( #193 ), #123, .F. ) ;
#99 = VERTEX_POINT ( 'NONE', #187 ) ;
#100 = DATE_TIME_ROLE ( 'classification_date' ) ;
#101 =( GEOMETRIC_REPRESENTATION_CONTEXT ( 3 ) GLOBAL_UNCERTAINTY_ASSIGNED_CONTEXT ( ( #190 ) ) GLOBAL_UNIT_ASSIGNED_CONTEXT ( ( #32, #188, #83 ) ) REPRESENTATION_CONTEXT ( 'NONE', 'WORKASPACE' ) );
#102 = ORIENTED_EDGE ( 'NONE', *, *, #145, .T. ) ;
#103 = APPROVAL ( #52, 'UNSPECIFIED' ) ;
#104 = AXIS2_PLACEMENT_3D ( 'NONE', #58, #112, #76 ) ;
#105 = AXIS2_PLACEMENT_3D ( 'NONE', #129, #131, #200 ) ;
#106 = DIRECTION ( 'NONE',  ( -3.491481338843133355E-15, 1.224646799147353207E-16, -1.000000000000000000 ) ) ;
#107 = CC_DESIGN_PERSON_AND_ORGANIZATION_ASSIGNMENT ( #115, #35, ( #1 ) ) ;
#108 = CYLINDRICAL_SURFACE ( 'NONE', #134, 0.3749999999999989453 ) ;
#109 = ORIENTED_EDGE ( 'NONE', *, *, #132, .F. ) ;
#110 = CARTESIAN_POINT ( 'NONE',  ( 1.043952920314096936E-13, -3.661693929450586610E-15, 29.90000000000000213 ) ) ;
#111 = CLOSED_SHELL ( 'NONE', ( #98, #138, #87, #128, #36 ) ) ;
#112 = DIRECTION ( 'NONE',  ( -3.491481338843133355E-15, 1.224646799147353207E-16, -1.000000000000000000 ) ) ;
#113 = LOCAL_TIME ( 10, 11, 27.00000000000000000, #50 ) ;
#114 = APPROVAL_PERSON_ORGANIZATION ( #22, #103, #67 ) ;
#115 = PERSON_AND_ORGANIZATION ( #166, #54 ) ;
#116 = PERSON_AND_ORGANIZATION_ROLE ( 'creator' ) ;
#117 = EDGE_LOOP ( 'NONE', ( #102 ) ) ;
#118 = CLOSED_SHELL ( 'NONE', ( #219, #4, #175 ) ) ;
#119 = APPROVAL_PERSON_ORGANIZATION ( #81, #46, #221 ) ;
#120 = FACE_OUTER_BOUND ( 'NONE', #204, .T. ) ;
#121 = PRODUCT_DEFINITION ( 'UNKNOWN', '', #161, #72 ) ;
#122 = ORIENTED_EDGE ( 'NONE', *, *, #184, .T. ) ;
#123 = PLANE ( 'NONE',  #207 ) ;
#124 = CARTESIAN_POINT ( 'NONE',  ( 1.955229549752154679E-14, 2.812049592490967620E-33, 5.599999999999999645 ) ) ;
#125 = CC_DESIGN_PERSON_AND_ORGANIZATION_ASSIGNMENT ( #68, #13, ( #121 ) ) ;
#126 = FACE_BOUND ( 'NONE', #88, .T. ) ;
#127 = DATE_AND_TIME ( #216, #18 ) ;
#128 = ADVANCED_FACE ( 'NONE', ( #158, #126 ), #130, .T. ) ;
#129 = CARTESIAN_POINT ( 'NONE',  ( 7.559278840693701651E-16, -2.651438096812287933E-17, 0.2165063509461113422 ) ) ;
#130 = CONICAL_SURFACE ( 'NONE', #37, 0.3999999999999989675, 0.7853981633974683740 ) ;
#131 = DIRECTION ( 'NONE',  ( 3.491481338843133355E-15, -1.224646799147353207E-16, 1.000000000000000000 ) ) ;
#132 = EDGE_CURVE ( 'NONE', #153, #153, #173, .T. ) ;
#133 = VERTEX_POINT ( 'NONE', #199 ) ;
#134 = AXIS2_PLACEMENT_3D ( 'NONE', #144, #106, #26 ) ;
#135 = AXIS2_PLACEMENT_3D ( 'NONE', #110, #28, #95 ) ;
#136 = CONICAL_SURFACE ( 'NONE', #105, 0.3749999999999986122, 1.047197551196592746 ) ;
#137 = PERSON_AND_ORGANIZATION ( #166, #54 ) ;
#138 = ADVANCED_FACE ( 'NONE', ( #74, #205 ), #196, .T. ) ;
#139 = ORIENTED_EDGE ( 'NONE', *, *, #145, .F. ) ;
#140 = CC_DESIGN_APPROVAL ( #197, ( #161 ) ) ;
#141 = DIRECTION ( 'NONE',  ( 3.491481338843133355E-15, -1.224646799147353207E-16, 1.000000000000000000 ) ) ;
#142 = CARTESIAN_POINT ( 'NONE',  ( 2.118109371630171252E-14, -7.429327584693248882E-16, 6.066506350946114345 ) ) ;
#143 = DIRECTION ( 'NONE',  ( -3.491481338843133355E-15, 1.224646799147353207E-16, -1.000000000000000000 ) ) ;
#144 = CARTESIAN_POINT ( 'NONE',  ( 0.0000000000000000000, 0.0000000000000000000, 0.0000000000000000000 ) ) ;
#145 = EDGE_CURVE ( 'NONE', #218, #218, #73, .T. ) ;
#146 = DIRECTION ( 'NONE',  ( 0.0000000000000000000, 1.000000000000000000, 0.0000000000000000000 ) ) ;
#147 = PRODUCT_DEFINITION_SHAPE ( 'NONE', 'NONE',  #121 ) ;
#148 = DATE_AND_TIME ( #80, #38 ) ;
#149 = CC_DESIGN_APPROVAL ( #103, ( #1 ) ) ;
#150 = COORDINATED_UNIVERSAL_TIME_OFFSET ( 1, 0, .AHEAD. ) ;
#151 = FACE_OUTER_BOUND ( 'NONE', #39, .T. ) ;
#152 = CC_DESIGN_APPROVAL ( #46, ( #121 ) ) ;
#153 = VERTEX_POINT ( 'NONE', #48 ) ;
#154 = SHAPE_DEFINITION_REPRESENTATION ( #147, #63 ) ;
#155 = DATE_AND_TIME ( #23, #89 ) ;
#156 = EDGE_LOOP ( 'NONE', ( #42 ) ) ;
#157 = ORIENTED_EDGE ( 'NONE', *, *, #165, .F. ) ;
#158 = FACE_OUTER_BOUND ( 'NONE', #192, .T. ) ;
#159 = CARTESIAN_POINT ( 'NONE',  ( 1.047444401652940007E-13, -3.673940397442059178E-15, 30.00000000000000000 ) ) ;
#160 = DIRECTION ( 'NONE',  ( -3.491481338843133355E-15, 1.224646799147353207E-16, -1.000000000000000000 ) ) ;
#161 = PRODUCT_DEFINITION_FORMATION_WITH_SPECIFIED_SOURCE ( 'ANY', '', #167, .NOT_KNOWN. ) ;
#162 = EDGE_LOOP ( 'NONE', ( #139 ) ) ;
#163 = CARTESIAN_POINT ( 'NONE',  ( 1.955229549752154679E-14, -6.858022075225177566E-16, 5.599999999999999645 ) ) ;
#164 = APPLICATION_PROTOCOL_DEFINITION ( 'international standard', 'config_control_design', 1994, #191 ) ;
#165 = EDGE_CURVE ( 'NONE', #133, #133, #220, .T. ) ;
#166 = PERSON ( 'UNSPECIFIED', 'UNSPECIFIED', 'UNSPECIFIED', ('UNSPECIFIED'), ('UNSPECIFIED'), ('UNSPECIFIED') ) ;
#167 = PRODUCT ( '55681', '55681', '', ( #186 ) ) ;
#168 = APPROVAL_ROLE ( '' ) ;
#169 = APPROVAL_STATUS ( 'not_yet_approved' ) ;
#170 = CARTESIAN_POINT ( 'NONE',  ( 2.118109371630171252E-14, 0.4999999999999952260, 6.066506350946114345 ) ) ;
#171 = APPLICATION_CONTEXT ( 'configuration controlled 3d designs of mechanical parts and assemblies' ) ;
#172 = VERTEX_POINT ( 'NONE', #170 ) ;
#173 = CIRCLE ( 'NONE', #181, 0.3999999999999989675 ) ;
#174 = APPROVAL_PERSON_ORGANIZATION ( #185, #197, #168 ) ;
#175 = ADVANCED_FACE ( 'NONE', ( #9 ), #60, .T. ) ;
#176 = AXIS2_PLACEMENT_3D ( 'NONE', #212, #61, #45 ) ;
#177 = PERSON_AND_ORGANIZATION_ROLE ( 'design_supplier' ) ;
#178 = FACE_OUTER_BOUND ( 'NONE', #222, .T. ) ;
#179 = CARTESIAN_POINT ( 'NONE',  ( 1.047444401652940007E-13, 2.999519565323652267E-33, 30.00000000000000000 ) ) ;
#180 = DIRECTION ( 'NONE',  ( -4.275831445896958607E-31, -1.000000000000000000, -1.224646799147353207E-16 ) ) ;
#181 = AXIS2_PLACEMENT_3D ( 'NONE', #198, #143, #75 ) ;
#182 = DIRECTION ( 'NONE',  ( -4.275831445896958607E-31, -1.000000000000000000, -1.224646799147353207E-16 ) ) ;
#183 = CYLINDRICAL_SURFACE ( 'NONE', #104, 0.4999999999999973910 ) ;
#184 = EDGE_CURVE ( 'NONE', #82, #82, #208, .T. ) ;
#185 = PERSON_AND_ORGANIZATION ( #166, #54 ) ;
#186 = MECHANICAL_CONTEXT ( 'NONE', #171, 'mechanical' ) ;
#187 = CARTESIAN_POINT ( 'NONE',  ( 1.955229549752154679E-14, 0.3749999999999986122, 5.599999999999999645 ) ) ;
#188 =( NAMED_UNIT ( * ) PLANE_ANGLE_UNIT ( ) SI_UNIT ( $, .RADIAN. ) );
#189 = ORIENTED_EDGE ( 'NONE', *, *, #202, .T. ) ;
#190 = UNCERTAINTY_MEASURE_WITH_UNIT (LENGTH_MEASURE( 1.000000000000000082E-05 ), #32, 'distance_accuracy_value', 'NONE');
#191 = APPLICATION_CONTEXT ( 'configuration controlled 3d designs of mechanical parts and assemblies' ) ;
#192 = EDGE_LOOP ( 'NONE', ( #90 ) ) ;
#193 = FACE_OUTER_BOUND ( 'NONE', #117, .T. ) ;
#194 = DIRECTION ( 'NONE',  ( -3.491481338843133355E-15, 1.224646799147353207E-16, -1.000000000000000000 ) ) ;
#195 = DIRECTION ( 'NONE',  ( 3.491481338843133355E-15, -1.224646799147353207E-16, 1.000000000000000000 ) ) ;
#196 = CONICAL_SURFACE ( 'NONE', #34, 0.4999999999999960032, 0.2617993877991403040 ) ;
#197 = APPROVAL ( #97, 'UNSPECIFIED' ) ;
#198 = CARTESIAN_POINT ( 'NONE',  ( 1.047444401652940007E-13, -3.673940397442059178E-15, 30.00000000000000000 ) ) ;
#199 = CARTESIAN_POINT ( 'NONE',  ( 7.559278840693703623E-16, 0.3749999999999986122, 0.2165063509461113977 ) ) ;
#200 = DIRECTION ( 'NONE',  ( -5.135813185032647917E-31, -1.000000000000000000, -1.445602896647344587E-16 ) ) ;
#201 = COORDINATED_UNIVERSAL_TIME_OFFSET ( 1, 0, .AHEAD. ) ;
#202 = EDGE_CURVE ( 'NONE', #99, #99, #57, .T. ) ;
#203 = AXIS2_PLACEMENT_3D ( 'NONE', #163, #79, #146 ) ;
#204 = EDGE_LOOP ( 'NONE', ( #122 ) ) ;
#205 = FACE_OUTER_BOUND ( 'NONE', #44, .T. ) ;
#206 = CARTESIAN_POINT ( 'NONE',  ( 7.559278840693701651E-16, -2.651438096812287933E-17, 0.2165063509461113422 ) ) ;
#207 = AXIS2_PLACEMENT_3D ( 'NONE', #29, #141, #180 ) ;
#208 = CIRCLE ( 'NONE', #135, 0.4999999999999989453 ) ;
#209 = ORIENTED_EDGE ( 'NONE', *, *, #132, .T. ) ;
#210 = DIRECTION ( 'NONE',  ( 0.0000000000000000000, 1.000000000000000000, 0.0000000000000000000 ) ) ;
#211 = EDGE_CURVE ( 'NONE', #172, #172, #27, .T. ) ;
#212 = CARTESIAN_POINT ( 'NONE',  ( 2.118109371630171252E-14, -7.429327584693248882E-16, 6.066506350946114345 ) ) ;
#213 = AXIS2_PLACEMENT_3D ( 'NONE', #30, #47, #65 ) ;
#214 = DATE_TIME_ROLE ( 'creation_date' ) ;
#215 = MANIFOLD_SOLID_BREP ( 'Corps-Déplacer/Copier1[1]', #111 ) ;
#216 = CALENDAR_DATE ( 2021, 8, 10 ) ;
#217 = MANIFOLD_SOLID_BREP ( 'Corps-Déplacer/Copier1[2]', #118 ) ;
#218 = VERTEX_POINT ( 'NONE', #31 ) ;
#219 = ADVANCED_FACE ( 'NONE', ( #151 ), #136, .T. ) ;
#220 = CIRCLE ( 'NONE', #14, 0.3749999999999986122 ) ;
#221 = APPROVAL_ROLE ( '' ) ;
#222 = EDGE_LOOP ( 'NONE', ( #109 ) ) ;
#223 = CALENDAR_DATE ( 2021, 8, 10 ) ;
ENDSEC;
END-ISO-10303-21;
