ISO-10303-21;
HEADER;
FILE_DESCRIPTION (( 'STEP AP203' ),
    '1' );
FILE_NAME ('57579.step',
    '2021-10-08T08:12:12',
    ( '' ),
    ( '' ),
    'SwSTEP 2.0',
    'SolidWorks 2019',
    '' );
FILE_SCHEMA (( 'CONFIG_CONTROL_DESIGN' ));
ENDSEC;

DATA;
#1 = DIRECTION ( 'NONE',  ( 5.502656983963540142E-31, 1.000000000000000000, 1.548860246407866048E-16 ) ) ;
#2 = CIRCLE ( 'NONE', #28, 0.3500000000000003109 ) ;
#3 = AXIS2_PLACEMENT_3D ( 'NONE', #10, #22, #7 ) ;
#4 = ORIENTED_EDGE ( 'NONE', *, *, #57, .F. ) ;
#5 = FACE_OUTER_BOUND ( 'NONE', #189, .T. ) ;
#6 = CC_DESIGN_PERSON_AND_ORGANIZATION_ASSIGNMENT ( #13, #30, ( #113 ) ) ;
#7 = DIRECTION ( 'NONE',  ( 4.275831445896958607E-31, 1.000000000000000000, 1.224646799147353207E-16 ) ) ;
#8 = VERTEX_POINT ( 'NONE', #144 ) ;
#9 = FACE_OUTER_BOUND ( 'NONE', #99, .T. ) ;
#10 = CARTESIAN_POINT ( 'NONE',  ( 1.047444401652940007E-13, 2.999519565323651582E-33, 30.00000000000000000 ) ) ;
#11 = CC_DESIGN_DATE_AND_TIME_ASSIGNMENT ( #77, #149, ( #188 ) ) ;
#12 =( NAMED_UNIT ( * ) SI_UNIT ( $, .STERADIAN. ) SOLID_ANGLE_UNIT ( ) );
#13 = PERSON_AND_ORGANIZATION ( #216, #171 ) ;
#14 = APPROVAL_PERSON_ORGANIZATION ( #127, #128, #133 ) ;
#15 = APPROVAL_STATUS ( 'not_yet_approved' ) ;
#16 = MANIFOLD_SOLID_BREP ( 'Corps-Déplacer/Copier1[1]', #105 ) ;
#17 = CIRCLE ( 'NONE', #100, 0.4999999999999989453 ) ;
#18 = MANIFOLD_SOLID_BREP ( 'Corps-Déplacer/Copier1[2]', #64 ) ;
#19 = CARTESIAN_POINT ( 'NONE',  ( 7.055326917980801027E-16, -2.474675557024806755E-17, 0.2020725942163709710 ) ) ;
#20 = ADVANCED_BREP_SHAPE_REPRESENTATION ( '57579', ( #16, #18, #203 ), #175 ) ;
#21 = DIRECTION ( 'NONE',  ( -3.491481338843133355E-15, 1.224646799147353207E-16, -1.000000000000000000 ) ) ;
#22 = DIRECTION ( 'NONE',  ( -3.491481338843133355E-15, 1.224646799147353207E-16, -1.000000000000000000 ) ) ;
#23 = CARTESIAN_POINT ( 'NONE',  ( 7.055326917980802999E-16, 0.3499999999999994227, 0.2020725942163710265 ) ) ;
#24 = APPROVAL_PERSON_ORGANIZATION ( #108, #152, #164 ) ;
#25 = DIRECTION ( 'NONE',  ( 3.491481338843133355E-15, -1.224646799147353207E-16, 1.000000000000000000 ) ) ;
#26 = DIRECTION ( 'NONE',  ( 0.0000000000000000000, 1.000000000000000000, 0.0000000000000000000 ) ) ;
#27 = EDGE_CURVE ( 'NONE', #178, #178, #215, .T. ) ;
#28 = AXIS2_PLACEMENT_3D ( 'NONE', #54, #122, #196 ) ;
#29 = PERSON_AND_ORGANIZATION_ROLE ( 'classification_officer' ) ;
#30 = PERSON_AND_ORGANIZATION_ROLE ( 'design_supplier' ) ;
#31 = APPLICATION_PROTOCOL_DEFINITION ( 'international standard', 'config_control_design', 1994, #123 ) ;
#32 = LOCAL_TIME ( 10, 12, 12.00000000000000000, #93 ) ;
#33 = ORIENTED_EDGE ( 'NONE', *, *, #75, .F. ) ;
#34 = EDGE_CURVE ( 'NONE', #8, #8, #40, .T. ) ;
#35 = ORIENTED_EDGE ( 'NONE', *, *, #34, .T. ) ;
#36 = CARTESIAN_POINT ( 'NONE',  ( 1.047444401652940007E-13, -3.673940397442059178E-15, 30.00000000000000000 ) ) ;
#37 = DIRECTION ( 'NONE',  ( 0.0000000000000000000, -1.000000000000000000, 0.0000000000000000000 ) ) ;
#38 = CYLINDRICAL_SURFACE ( 'NONE', #131, 0.3499999999999998113 ) ;
#39 = VERTEX_POINT ( 'NONE', #104 ) ;
#40 = CIRCLE ( 'NONE', #166, 0.3999999999999988565 ) ;
#41 = PLANE ( 'NONE',  #69 ) ;
#42 = EDGE_CURVE ( 'NONE', #213, #213, #94, .T. ) ;
#43 = APPROVAL_DATE_TIME ( #200, #128 ) ;
#44 = PERSON_AND_ORGANIZATION_ROLE ( 'creator' ) ;
#45 = COORDINATED_UNIVERSAL_TIME_OFFSET ( 1, 0, .AHEAD. ) ;
#46 = DIRECTION ( 'NONE',  ( 1.000000000000000000, 0.0000000000000000000, 0.0000000000000000000 ) ) ;
#47 = AXIS2_PLACEMENT_3D ( 'NONE', #91, #89, #146 ) ;
#48 = CC_DESIGN_PERSON_AND_ORGANIZATION_ASSIGNMENT ( #110, #74, ( #188 ) ) ;
#49 = CC_DESIGN_PERSON_AND_ORGANIZATION_ASSIGNMENT ( #182, #29, ( #58 ) ) ;
#50 = AXIS2_PLACEMENT_3D ( 'NONE', #195, #193, #159 ) ;
#51 = ORIENTED_EDGE ( 'NONE', *, *, #194, .T. ) ;
#52 = CARTESIAN_POINT ( 'NONE',  ( 0.0000000000000000000, 0.0000000000000000000, 0.0000000000000000000 ) ) ;
#53 = ADVANCED_FACE ( 'NONE', ( #180 ), #41, .F. ) ;
#54 = CARTESIAN_POINT ( 'NONE',  ( 1.955229549752154679E-14, -6.858022075225177566E-16, 5.599999999999999645 ) ) ;
#55 = CARTESIAN_POINT ( 'NONE',  ( 1.955229549752154679E-14, 0.3499999999999996447, 5.599999999999999645 ) ) ;
#56 = DIRECTION ( 'NONE',  ( -3.491481338843133355E-15, 1.224646799147353207E-16, -1.000000000000000000 ) ) ;
#57 = EDGE_CURVE ( 'NONE', #197, #197, #198, .T. ) ;
#58 = SECURITY_CLASSIFICATION ( '', '', #109 ) ;
#59 = PLANE ( 'NONE',  #3 ) ;
#60 = APPROVAL_DATE_TIME ( #181, #152 ) ;
#61 = CALENDAR_DATE ( 2021, 8, 10 ) ;
#62 = APPROVAL_ROLE ( '' ) ;
#63 = COORDINATED_UNIVERSAL_TIME_OFFSET ( 1, 0, .AHEAD. ) ;
#64 = CLOSED_SHELL ( 'NONE', ( #97, #137, #78 ) ) ;
#65 = CARTESIAN_POINT ( 'NONE',  ( 1.047444401652940007E-13, -3.673940397442059178E-15, 30.00000000000000000 ) ) ;
#66 = AXIS2_PLACEMENT_3D ( 'NONE', #19, #82, #1 ) ;
#67 = ORIENTED_EDGE ( 'NONE', *, *, #34, .F. ) ;
#68 = FACE_OUTER_BOUND ( 'NONE', #139, .T. ) ;
#69 = AXIS2_PLACEMENT_3D ( 'NONE', #142, #25, #161 ) ;
#70 = DIRECTION ( 'NONE',  ( -3.491481338843133355E-15, 1.224646799147353207E-16, -1.000000000000000000 ) ) ;
#71 = FACE_OUTER_BOUND ( 'NONE', #136, .T. ) ;
#72 = DIRECTION ( 'NONE',  ( -4.275831445896958607E-31, -1.000000000000000000, -1.224646799147353207E-16 ) ) ;
#73 = CONICAL_SURFACE ( 'NONE', #120, 0.4999999999999970579, 0.2617993877991421359 ) ;
#74 = PERSON_AND_ORGANIZATION_ROLE ( 'creator' ) ;
#75 = EDGE_CURVE ( 'NONE', #39, #39, #17, .T. ) ;
#76 = CALENDAR_DATE ( 2021, 8, 10 ) ;
#77 = DATE_AND_TIME ( #76, #118 ) ;
#78 = ADVANCED_FACE ( 'NONE', ( #179 ), #107, .T. ) ;
#79 = EDGE_LOOP ( 'NONE', ( #86 ) ) ;
#80 = CONICAL_SURFACE ( 'NONE', #47, 0.3499999999999994227, 1.047197551196592746 ) ;
#81 = EDGE_LOOP ( 'NONE', ( #33 ) ) ;
#82 = DIRECTION ( 'NONE',  ( -3.491481338843133355E-15, 1.224646799147353207E-16, -1.000000000000000000 ) ) ;
#83 = CALENDAR_DATE ( 2021, 8, 10 ) ;
#84 = ORIENTED_EDGE ( 'NONE', *, *, #27, .F. ) ;
#85 = APPROVAL_PERSON_ORGANIZATION ( #95, #130, #62 ) ;
#86 = ORIENTED_EDGE ( 'NONE', *, *, #42, .F. ) ;
#87 = DIRECTION ( 'NONE',  ( -3.491481338843133355E-15, 1.224646799147353207E-16, -1.000000000000000000 ) ) ;
#88 = DIRECTION ( 'NONE',  ( 3.491481338843133355E-15, -1.224646799147353207E-16, 1.000000000000000000 ) ) ;
#89 = DIRECTION ( 'NONE',  ( 3.491481338843133355E-15, -1.224646799147353207E-16, 1.000000000000000000 ) ) ;
#90 = CONICAL_SURFACE ( 'NONE', #126, 0.3999999999999988565, 0.7853981633974689291 ) ;
#91 = CARTESIAN_POINT ( 'NONE',  ( 7.055326917980801027E-16, -2.474675557024806755E-17, 0.2020725942163709710 ) ) ;
#92 = DIRECTION ( 'NONE',  ( 4.275831445896958607E-31, 1.000000000000000000, 1.224646799147353207E-16 ) ) ;
#93 = COORDINATED_UNIVERSAL_TIME_OFFSET ( 1, 0, .AHEAD. ) ;
#94 = CIRCLE ( 'NONE', #50, 0.3500000000000003109 ) ;
#95 = PERSON_AND_ORGANIZATION ( #216, #171 ) ;
#96 = APPLICATION_PROTOCOL_DEFINITION ( 'international standard', 'config_control_design', 1994, #168 ) ;
#97 = ADVANCED_FACE ( 'NONE', ( #158 ), #80, .T. ) ;
#98 = EDGE_LOOP ( 'NONE', ( #35 ) ) ;
#99 = EDGE_LOOP ( 'NONE', ( #172 ) ) ;
#100 = AXIS2_PLACEMENT_3D ( 'NONE', #217, #21, #101 ) ;
#101 = DIRECTION ( 'NONE',  ( 0.0000000000000000000, 1.000000000000000000, 0.0000000000000000000 ) ) ;
#102 = CYLINDRICAL_SURFACE ( 'NONE', #141, 0.4999999999999980571 ) ;
#103 = FACE_OUTER_BOUND ( 'NONE', #81, .T. ) ;
#104 = CARTESIAN_POINT ( 'NONE',  ( 1.043952920314096936E-13, 0.4999999999999952260, 29.90000000000000213 ) ) ;
#105 = CLOSED_SHELL ( 'NONE', ( #53, #185, #117, #154, #143 ) ) ;
#106 = UNCERTAINTY_MEASURE_WITH_UNIT (LENGTH_MEASURE( 1.000000000000000082E-05 ), #205, 'distance_accuracy_value', 'NONE');
#107 = PLANE ( 'NONE',  #135 ) ;
#108 = PERSON_AND_ORGANIZATION ( #216, #171 ) ;
#109 = SECURITY_CLASSIFICATION_LEVEL ( 'unclassified' ) ;
#110 = PERSON_AND_ORGANIZATION ( #216, #171 ) ;
#111 = VERTEX_POINT ( 'NONE', #162 ) ;
#112 = DIRECTION ( 'NONE',  ( 0.0000000000000000000, 0.0000000000000000000, 1.000000000000000000 ) ) ;
#113 = PRODUCT_DEFINITION_FORMATION_WITH_SPECIFIED_SOURCE ( 'ANY', '', #170, .NOT_KNOWN. ) ;
#114 = CC_DESIGN_APPROVAL ( #130, ( #58 ) ) ;
#115 = DATE_AND_TIME ( #83, #207 ) ;
#116 = ORIENTED_EDGE ( 'NONE', *, *, #42, .T. ) ;
#117 = ADVANCED_FACE ( 'NONE', ( #5, #9 ), #102, .T. ) ;
#118 = LOCAL_TIME ( 10, 12, 12.00000000000000000, #63 ) ;
#119 = DIRECTION ( 'NONE',  ( -3.491481338843133355E-15, 1.224646799147353207E-16, -1.000000000000000000 ) ) ;
#120 = AXIS2_PLACEMENT_3D ( 'NONE', #211, #88, #37 ) ;
#121 = FACE_OUTER_BOUND ( 'NONE', #209, .T. ) ;
#122 = DIRECTION ( 'NONE',  ( -3.491481338843133355E-15, 1.224646799147353207E-16, -1.000000000000000000 ) ) ;
#123 = APPLICATION_CONTEXT ( 'configuration controlled 3d designs of mechanical parts and assemblies' ) ;
#124 = CARTESIAN_POINT ( 'NONE',  ( 2.150685336005773809E-14, 0.4999999999999963363, 6.159807621135335864 ) ) ;
#125 = CARTESIAN_POINT ( 'NONE',  ( 2.150685336005773809E-14, -7.543588686586860976E-16, 6.159807621135335864 ) ) ;
#126 = AXIS2_PLACEMENT_3D ( 'NONE', #36, #87, #140 ) ;
#127 = PERSON_AND_ORGANIZATION ( #216, #171 ) ;
#128 = APPROVAL ( #15, 'UNSPECIFIED' ) ;
#129 = DATE_TIME_ROLE ( 'classification_date' ) ;
#130 = APPROVAL ( #219, 'UNSPECIFIED' ) ;
#131 = AXIS2_PLACEMENT_3D ( 'NONE', #145, #70, #92 ) ;
#132 = CALENDAR_DATE ( 2021, 8, 10 ) ;
#133 = APPROVAL_ROLE ( '' ) ;
#134 = APPROVAL_DATE_TIME ( #115, #130 ) ;
#135 = AXIS2_PLACEMENT_3D ( 'NONE', #177, #157, #72 ) ;
#136 = EDGE_LOOP ( 'NONE', ( #84 ) ) ;
#137 = ADVANCED_FACE ( 'NONE', ( #71, #156 ), #38, .T. ) ;
#138 = EDGE_LOOP ( 'NONE', ( #153 ) ) ;
#139 = EDGE_LOOP ( 'NONE', ( #67 ) ) ;
#140 = DIRECTION ( 'NONE',  ( 0.0000000000000000000, 1.000000000000000000, 0.0000000000000000000 ) ) ;
#141 = AXIS2_PLACEMENT_3D ( 'NONE', #52, #56, #176 ) ;
#142 = CARTESIAN_POINT ( 'NONE',  ( 1.955229549752154679E-14, 2.624579619658242945E-33, 5.599999999999999645 ) ) ;
#143 = ADVANCED_FACE ( 'NONE', ( #68 ), #59, .F. ) ;
#144 = CARTESIAN_POINT ( 'NONE',  ( 1.047444401652940007E-13, 0.3999999999999951927, 30.00000000000000000 ) ) ;
#145 = CARTESIAN_POINT ( 'NONE',  ( 0.0000000000000000000, 0.0000000000000000000, 0.0000000000000000000 ) ) ;
#146 = DIRECTION ( 'NONE',  ( -5.502656983963540142E-31, -1.000000000000000000, -1.548860246407866048E-16 ) ) ;
#147 = APPROVAL_STATUS ( 'not_yet_approved' ) ;
#148 = CALENDAR_DATE ( 2021, 8, 10 ) ;
#149 = DATE_TIME_ROLE ( 'creation_date' ) ;
#150 = EDGE_LOOP ( 'NONE', ( #116 ) ) ;
#151 = PRODUCT_DEFINITION_SHAPE ( 'NONE', 'NONE',  #188 ) ;
#152 = APPROVAL ( #147, 'UNSPECIFIED' ) ;
#153 = ORIENTED_EDGE ( 'NONE', *, *, #194, .F. ) ;
#154 = ADVANCED_FACE ( 'NONE', ( #103, #199 ), #90, .T. ) ;
#155 = CC_DESIGN_APPROVAL ( #152, ( #113 ) ) ;
#156 = FACE_OUTER_BOUND ( 'NONE', #150, .T. ) ;
#157 = DIRECTION ( 'NONE',  ( 3.491481338843133355E-15, -1.224646799147353207E-16, 1.000000000000000000 ) ) ;
#158 = FACE_OUTER_BOUND ( 'NONE', #208, .T. ) ;
#159 = DIRECTION ( 'NONE',  ( 0.0000000000000000000, 1.000000000000000000, 0.0000000000000000000 ) ) ;
#160 = DESIGN_CONTEXT ( 'detailed design', #168, 'design' ) ;
#161 = DIRECTION ( 'NONE',  ( -4.275831445896958607E-31, -1.000000000000000000, -1.224646799147353207E-16 ) ) ;
#162 = CARTESIAN_POINT ( 'NONE',  ( 1.955229549752154679E-14, 0.3499999999999996447, 5.599999999999999645 ) ) ;
#163 = PRODUCT_RELATED_PRODUCT_CATEGORY ( 'detail', '', ( #170 ) ) ;
#164 = APPROVAL_ROLE ( '' ) ;
#165 = MECHANICAL_CONTEXT ( 'NONE', #123, 'mechanical' ) ;
#166 = AXIS2_PLACEMENT_3D ( 'NONE', #65, #119, #192 ) ;
#167 = CC_DESIGN_SECURITY_CLASSIFICATION ( #58, ( #113 ) ) ;
#168 = APPLICATION_CONTEXT ( 'configuration controlled 3d designs of mechanical parts and assemblies' ) ;
#169 = PERSON_AND_ORGANIZATION_ROLE ( 'design_owner' ) ;
#170 = PRODUCT ( '57579', '57579', '', ( #165 ) ) ;
#171 = ORGANIZATION ( 'UNSPECIFIED', 'UNSPECIFIED', '' ) ;
#172 = ORIENTED_EDGE ( 'NONE', *, *, #75, .T. ) ;
#173 = EDGE_LOOP ( 'NONE', ( #51 ) ) ;
#174 = CC_DESIGN_DATE_AND_TIME_ASSIGNMENT ( #184, #129, ( #58 ) ) ;
#175 =( GEOMETRIC_REPRESENTATION_CONTEXT ( 3 ) GLOBAL_UNCERTAINTY_ASSIGNED_CONTEXT ( ( #106 ) ) GLOBAL_UNIT_ASSIGNED_CONTEXT ( ( #205, #202, #12 ) ) REPRESENTATION_CONTEXT ( 'NONE', 'WORKASPACE' ) );
#176 = DIRECTION ( 'NONE',  ( 4.275831445896958607E-31, 1.000000000000000000, 1.224646799147353207E-16 ) ) ;
#177 = CARTESIAN_POINT ( 'NONE',  ( 1.955229549752154679E-14, 2.624579619658242945E-33, 5.599999999999999645 ) ) ;
#178 = VERTEX_POINT ( 'NONE', #23 ) ;
#179 = FACE_OUTER_BOUND ( 'NONE', #79, .T. ) ;
#180 = FACE_OUTER_BOUND ( 'NONE', #173, .T. ) ;
#181 = DATE_AND_TIME ( #148, #32 ) ;
#182 = PERSON_AND_ORGANIZATION ( #216, #171 ) ;
#183 = AXIS2_PLACEMENT_3D ( 'NONE', #125, #214, #26 ) ;
#184 = DATE_AND_TIME ( #61, #187 ) ;
#185 = ADVANCED_FACE ( 'NONE', ( #210, #121 ), #73, .T. ) ;
#186 = COORDINATED_UNIVERSAL_TIME_OFFSET ( 1, 0, .AHEAD. ) ;
#187 = LOCAL_TIME ( 10, 12, 12.00000000000000000, #218 ) ;
#188 = PRODUCT_DEFINITION ( 'UNKNOWN', '', #113, #160 ) ;
#189 = EDGE_LOOP ( 'NONE', ( #4 ) ) ;
#190 = ORIENTED_EDGE ( 'NONE', *, *, #27, .T. ) ;
#191 = LOCAL_TIME ( 10, 12, 12.00000000000000000, #186 ) ;
#192 = DIRECTION ( 'NONE',  ( 0.0000000000000000000, 1.000000000000000000, 0.0000000000000000000 ) ) ;
#193 = DIRECTION ( 'NONE',  ( -3.491481338843133355E-15, 1.224646799147353207E-16, -1.000000000000000000 ) ) ;
#194 = EDGE_CURVE ( 'NONE', #111, #111, #2, .T. ) ;
#195 = CARTESIAN_POINT ( 'NONE',  ( 1.955229549752154679E-14, -6.858022075225177566E-16, 5.599999999999999645 ) ) ;
#196 = DIRECTION ( 'NONE',  ( 0.0000000000000000000, 1.000000000000000000, 0.0000000000000000000 ) ) ;
#197 = VERTEX_POINT ( 'NONE', #124 ) ;
#198 = CIRCLE ( 'NONE', #183, 0.4999999999999970579 ) ;
#199 = FACE_BOUND ( 'NONE', #98, .T. ) ;
#200 = DATE_AND_TIME ( #132, #191 ) ;
#201 = PERSON_AND_ORGANIZATION ( #216, #171 ) ;
#202 =( NAMED_UNIT ( * ) PLANE_ANGLE_UNIT ( ) SI_UNIT ( $, .RADIAN. ) );
#203 = AXIS2_PLACEMENT_3D ( 'NONE', #221, #112, #46 ) ;
#204 = PERSON_AND_ORGANIZATION ( #216, #171 ) ;
#205 =( LENGTH_UNIT ( ) NAMED_UNIT ( * ) SI_UNIT ( .MILLI., .METRE. ) );
#206 = CC_DESIGN_PERSON_AND_ORGANIZATION_ASSIGNMENT ( #204, #169, ( #170 ) ) ;
#207 = LOCAL_TIME ( 10, 12, 12.00000000000000000, #45 ) ;
#208 = EDGE_LOOP ( 'NONE', ( #190 ) ) ;
#209 = EDGE_LOOP ( 'NONE', ( #222 ) ) ;
#210 = FACE_BOUND ( 'NONE', #138, .T. ) ;
#211 = CARTESIAN_POINT ( 'NONE',  ( 2.150685336005773809E-14, -7.543588686586860976E-16, 6.159807621135335864 ) ) ;
#212 = CC_DESIGN_PERSON_AND_ORGANIZATION_ASSIGNMENT ( #201, #44, ( #113 ) ) ;
#213 = VERTEX_POINT ( 'NONE', #55 ) ;
#214 = DIRECTION ( 'NONE',  ( -3.491481338843133355E-15, 1.224646799147353207E-16, -1.000000000000000000 ) ) ;
#215 = CIRCLE ( 'NONE', #66, 0.3499999999999994227 ) ;
#216 = PERSON ( 'UNSPECIFIED', 'UNSPECIFIED', 'UNSPECIFIED', ('UNSPECIFIED'), ('UNSPECIFIED'), ('UNSPECIFIED') ) ;
#217 = CARTESIAN_POINT ( 'NONE',  ( 1.043952920314096936E-13, -3.661693929450586610E-15, 29.90000000000000213 ) ) ;
#218 = COORDINATED_UNIVERSAL_TIME_OFFSET ( 1, 0, .AHEAD. ) ;
#219 = APPROVAL_STATUS ( 'not_yet_approved' ) ;
#220 = CC_DESIGN_APPROVAL ( #128, ( #188 ) ) ;
#221 = CARTESIAN_POINT ( 'NONE',  ( 0.0000000000000000000, 0.0000000000000000000, 0.0000000000000000000 ) ) ;
#222 = ORIENTED_EDGE ( 'NONE', *, *, #57, .T. ) ;
#223 = SHAPE_DEFINITION_REPRESENTATION ( #151, #20 ) ;
ENDSEC;
END-ISO-10303-21;
