ISO-10303-21;
HEADER;
FILE_DESCRIPTION (( 'STEP AP203' ),
    '1' );
FILE_NAME ('55673.step',
    '2021-10-06T11:20:48',
    ( '' ),
    ( '' ),
    'SwSTEP 2.0',
    'SolidWorks 2019',
    '' );
FILE_SCHEMA (( 'CONFIG_CONTROL_DESIGN' ));
ENDSEC;

DATA;
#1 = PERSON_AND_ORGANIZATION_ROLE ( 'creator' ) ;
#2 =( NAMED_UNIT ( * ) PLANE_ANGLE_UNIT ( ) SI_UNIT ( $, .RADIAN. ) );
#3 = APPROVAL_STATUS ( 'not_yet_approved' ) ;
#4 = APPROVAL_STATUS ( 'not_yet_approved' ) ;
#5 = CARTESIAN_POINT ( 'NONE',  ( 0.0000000000000000000, 0.0000000000000000000, 0.0000000000000000000 ) ) ;
#6 = PERSON_AND_ORGANIZATION ( #73, #192 ) ;
#7 = CC_DESIGN_PERSON_AND_ORGANIZATION_ASSIGNMENT ( #83, #1, ( #198 ) ) ;
#8 = AXIS2_PLACEMENT_3D ( 'NONE', #23, #132, #188 ) ;
#9 = APPROVAL_PERSON_ORGANIZATION ( #81, #107, #111 ) ;
#10 = CARTESIAN_POINT ( 'NONE',  ( 9.776147748760773395E-14, 2.999999999999992450, 28.00000000000000000 ) ) ;
#11 = DIRECTION ( 'NONE',  ( -4.275831445896958607E-31, -1.000000000000000000, -1.224646799147353207E-16 ) ) ;
#12 = CARTESIAN_POINT ( 'NONE',  ( 9.776147748760773395E-14, 2.249639673992777927E-32, 28.00000000000000000 ) ) ;
#13 = VERTEX_POINT ( 'NONE', #58 ) ;
#14 = PRODUCT_DEFINITION_SHAPE ( 'NONE', 'NONE',  #169 ) ;
#15 = CLOSED_SHELL ( 'NONE', ( #182, #119, #126, #173 ) ) ;
#16 = CC_DESIGN_PERSON_AND_ORGANIZATION_ASSIGNMENT ( #159, #193, ( #180 ) ) ;
#17 = PERSON_AND_ORGANIZATION ( #73, #192 ) ;
#18 = DIRECTION ( 'NONE',  ( -4.275831445896958607E-31, -1.000000000000000000, -1.224646799147353207E-16 ) ) ;
#19 = CC_DESIGN_APPROVAL ( #50, ( #128 ) ) ;
#20 = CALENDAR_DATE ( 2021, 6, 10 ) ;
#21 = DATE_AND_TIME ( #20, #120 ) ;
#22 = DATE_AND_TIME ( #146, #108 ) ;
#23 = CARTESIAN_POINT ( 'NONE',  ( 9.776147748760773395E-14, -3.429011037612589276E-15, 28.00000000000000000 ) ) ;
#24 = ORIENTED_EDGE ( 'NONE', *, *, #202, .T. ) ;
#25 = APPROVAL_PERSON_ORGANIZATION ( #6, #50, #77 ) ;
#26 = DIRECTION ( 'NONE',  ( -3.491481338843133355E-15, 1.224646799147353207E-16, -1.000000000000000000 ) ) ;
#27 = CIRCLE ( 'NONE', #138, 3.000000000000000000 ) ;
#28 = CARTESIAN_POINT ( 'NONE',  ( 2.279937314264566018E-13, -7.996943598432214956E-15, 65.29999999999999716 ) ) ;
#29 = FACE_OUTER_BOUND ( 'NONE', #118, .T. ) ;
#30 = APPLICATION_CONTEXT ( 'configuration controlled 3d designs of mechanical parts and assemblies' ) ;
#31 = VERTEX_POINT ( 'NONE', #139 ) ;
#32 = SECURITY_CLASSIFICATION_LEVEL ( 'unclassified' ) ;
#33 = APPROVAL_DATE_TIME ( #52, #50 ) ;
#34 = MANIFOLD_SOLID_BREP ( 'Corps-Déplacer/Copier1[1]', #15 ) ;
#35 = CC_DESIGN_DATE_AND_TIME_ASSIGNMENT ( #97, #177, ( #128 ) ) ;
#36 = COORDINATED_UNIVERSAL_TIME_OFFSET ( 1, 0, .AHEAD. ) ;
#37 = CARTESIAN_POINT ( 'NONE',  ( 2.304377683636468267E-13, 1.724723750061123933E-32, 66.00000000000000000 ) ) ;
#38 = DIRECTION ( 'NONE',  ( 0.0000000000000000000, 1.000000000000000000, 0.0000000000000000000 ) ) ;
#39 = CIRCLE ( 'NONE', #96, 2.999999999999995559 ) ;
#40 = PERSON_AND_ORGANIZATION_ROLE ( 'classification_officer' ) ;
#41 = CARTESIAN_POINT ( 'NONE',  ( 2.304377683636468267E-13, -8.082668874372532400E-15, 66.00000000000000000 ) ) ;
#42 = ORIENTED_EDGE ( 'NONE', *, *, #190, .T. ) ;
#43 = AXIS2_PLACEMENT_3D ( 'NONE', #5, #85, #82 ) ;
#44 = CC_DESIGN_DATE_AND_TIME_ASSIGNMENT ( #158, #86, ( #169 ) ) ;
#45 = DIRECTION ( 'NONE',  ( 4.275831445896958607E-31, 1.000000000000000000, 1.224646799147353207E-16 ) ) ;
#46 = FACE_OUTER_BOUND ( 'NONE', #87, .T. ) ;
#47 = FACE_OUTER_BOUND ( 'NONE', #165, .T. ) ;
#48 = CONICAL_SURFACE ( 'NONE', #65, 2.300000000000000266, 0.7853981633974437271 ) ;
#49 = CARTESIAN_POINT ( 'NONE',  ( 9.776147748760773395E-14, 2.249639673992777927E-32, 28.00000000000000000 ) ) ;
#50 = APPROVAL ( #4, 'UNSPECIFIED' ) ;
#51 = COORDINATED_UNIVERSAL_TIME_OFFSET ( 1, 0, .AHEAD. ) ;
#52 = DATE_AND_TIME ( #140, #95 ) ;
#53 = PERSON_AND_ORGANIZATION_ROLE ( 'design_supplier' ) ;
#54 = ADVANCED_FACE ( 'NONE', ( #157 ), #59, .T. ) ;
#55 = ORIENTED_EDGE ( 'NONE', *, *, #147, .F. ) ;
#56 = FACE_OUTER_BOUND ( 'NONE', #115, .T. ) ;
#57 = CARTESIAN_POINT ( 'NONE',  ( 0.0000000000000000000, 0.0000000000000000000, 0.0000000000000000000 ) ) ;
#58 = CARTESIAN_POINT ( 'NONE',  ( 2.279937314264566018E-13, 2.999999999999992450, 65.29999999999999716 ) ) ;
#59 = CONICAL_SURFACE ( 'NONE', #90, 2.999999999999992450, 1.134464013796309123 ) ;
#60 = MECHANICAL_CONTEXT ( 'NONE', #30, 'mechanical' ) ;
#61 = SHAPE_DEFINITION_REPRESENTATION ( #14, #152 ) ;
#62 = CIRCLE ( 'NONE', #150, 2.999999999999992450 ) ;
#63 = DIRECTION ( 'NONE',  ( -3.491481338843133355E-15, 1.224646799147353207E-16, -1.000000000000000000 ) ) ;
#64 = CALENDAR_DATE ( 2021, 6, 10 ) ;
#65 = AXIS2_PLACEMENT_3D ( 'NONE', #166, #89, #68 ) ;
#66 = EDGE_CURVE ( 'NONE', #103, #103, #39, .T. ) ;
#67 = CARTESIAN_POINT ( 'NONE',  ( 4.884313459823513721E-15, -1.713186542932269614E-16, 1.398922974465010460 ) ) ;
#68 = DIRECTION ( 'NONE',  ( 0.0000000000000000000, 1.000000000000000000, 0.0000000000000000000 ) ) ;
#69 = CC_DESIGN_PERSON_AND_ORGANIZATION_ASSIGNMENT ( #17, #40, ( #128 ) ) ;
#70 = DIRECTION ( 'NONE',  ( 4.275831445896958607E-31, 1.000000000000000000, 1.224646799147353454E-16 ) ) ;
#71 = FACE_OUTER_BOUND ( 'NONE', #145, .T. ) ;
#72 = CARTESIAN_POINT ( 'NONE',  ( 2.304377683636468267E-13, 2.299999999999992273, 66.00000000000000000 ) ) ;
#73 = PERSON ( 'UNSPECIFIED', 'UNSPECIFIED', 'UNSPECIFIED', ('UNSPECIFIED'), ('UNSPECIFIED'), ('UNSPECIFIED') ) ;
#74 = DIRECTION ( 'NONE',  ( 3.491481338843133355E-15, -1.224646799147353207E-16, 1.000000000000000000 ) ) ;
#75 = APPROVAL ( #187, 'UNSPECIFIED' ) ;
#76 = VERTEX_POINT ( 'NONE', #109 ) ;
#77 = APPROVAL_ROLE ( '' ) ;
#78 = CARTESIAN_POINT ( 'NONE',  ( 4.884313459823513721E-15, -1.713186542932269614E-16, 1.398922974465010460 ) ) ;
#79 = PERSON_AND_ORGANIZATION ( #73, #192 ) ;
#80 = DIRECTION ( 'NONE',  ( 3.491481338843133355E-15, -1.224646799147353207E-16, 1.000000000000000000 ) ) ;
#81 = PERSON_AND_ORGANIZATION ( #73, #192 ) ;
#82 = DIRECTION ( 'NONE',  ( 1.000000000000000000, 0.0000000000000000000, 0.0000000000000000000 ) ) ;
#83 = PERSON_AND_ORGANIZATION ( #73, #192 ) ;
#84 = ORIENTED_EDGE ( 'NONE', *, *, #66, .F. ) ;
#85 = DIRECTION ( 'NONE',  ( 0.0000000000000000000, 0.0000000000000000000, 1.000000000000000000 ) ) ;
#86 = DATE_TIME_ROLE ( 'creation_date' ) ;
#87 = EDGE_LOOP ( 'NONE', ( #121 ) ) ;
#88 = EDGE_LOOP ( 'NONE', ( #100 ) ) ;
#89 = DIRECTION ( 'NONE',  ( -3.491481338843133355E-15, 1.224646799147353207E-16, -1.000000000000000000 ) ) ;
#90 = AXIS2_PLACEMENT_3D ( 'NONE', #78, #80, #141 ) ;
#91 = ADVANCED_FACE ( 'NONE', ( #143, #56 ), #122, .T. ) ;
#92 = DIRECTION ( 'NONE',  ( 4.275831445896958607E-31, 1.000000000000000000, 1.224646799147353454E-16 ) ) ;
#93 = DIRECTION ( 'NONE',  ( -3.491481338843133355E-15, 1.224646799147353207E-16, -1.000000000000000000 ) ) ;
#94 = UNCERTAINTY_MEASURE_WITH_UNIT (LENGTH_MEASURE( 1.000000000000000082E-05 ), #178, 'distance_accuracy_value', 'NONE');
#95 = LOCAL_TIME ( 13, 20, 48.00000000000000000, #160 ) ;
#96 = AXIS2_PLACEMENT_3D ( 'NONE', #203, #63, #38 ) ;
#97 = DATE_AND_TIME ( #64, #142 ) ;
#98 =( GEOMETRIC_REPRESENTATION_CONTEXT ( 3 ) GLOBAL_UNCERTAINTY_ASSIGNED_CONTEXT ( ( #94 ) ) GLOBAL_UNIT_ASSIGNED_CONTEXT ( ( #178, #2, #174 ) ) REPRESENTATION_CONTEXT ( 'NONE', 'WORKASPACE' ) );
#99 = AXIS2_PLACEMENT_3D ( 'NONE', #41, #101, #131 ) ;
#100 = ORIENTED_EDGE ( 'NONE', *, *, #147, .T. ) ;
#101 = DIRECTION ( 'NONE',  ( -3.491481338843133355E-15, 1.224646799147353207E-16, -1.000000000000000000 ) ) ;
#102 = ORIENTED_EDGE ( 'NONE', *, *, #199, .F. ) ;
#103 = VERTEX_POINT ( 'NONE', #10 ) ;
#104 = EDGE_LOOP ( 'NONE', ( #24 ) ) ;
#105 = CLOSED_SHELL ( 'NONE', ( #54, #91, #106 ) ) ;
#106 = ADVANCED_FACE ( 'NONE', ( #149 ), #151, .T. ) ;
#107 = APPROVAL ( #3, 'UNSPECIFIED' ) ;
#108 = LOCAL_TIME ( 13, 20, 48.00000000000000000, #156 ) ;
#109 = CARTESIAN_POINT ( 'NONE',  ( 4.884313459823515299E-15, 2.999999999999992450, 1.398922974465010904 ) ) ;
#110 = CC_DESIGN_PERSON_AND_ORGANIZATION_ASSIGNMENT ( #113, #196, ( #169 ) ) ;
#111 = APPROVAL_ROLE ( '' ) ;
#112 = PERSON_AND_ORGANIZATION ( #73, #192 ) ;
#113 = PERSON_AND_ORGANIZATION ( #73, #192 ) ;
#114 = CC_DESIGN_PERSON_AND_ORGANIZATION_ASSIGNMENT ( #79, #53, ( #198 ) ) ;
#115 = EDGE_LOOP ( 'NONE', ( #163 ) ) ;
#116 = AXIS2_PLACEMENT_3D ( 'NONE', #49, #74, #11 ) ;
#117 = APPLICATION_PROTOCOL_DEFINITION ( 'international standard', 'config_control_design', 1994, #155 ) ;
#118 = EDGE_LOOP ( 'NONE', ( #183 ) ) ;
#119 = ADVANCED_FACE ( 'NONE', ( #71, #46 ), #170, .T. ) ;
#120 = LOCAL_TIME ( 13, 20, 48.00000000000000000, #51 ) ;
#121 = ORIENTED_EDGE ( 'NONE', *, *, #199, .T. ) ;
#122 = CYLINDRICAL_SURFACE ( 'NONE', #201, 2.999999999999993783 ) ;
#123 = FACE_OUTER_BOUND ( 'NONE', #197, .T. ) ;
#124 = PRODUCT_RELATED_PRODUCT_CATEGORY ( 'detail', '', ( #180 ) ) ;
#125 = DIRECTION ( 'NONE',  ( -3.491481338843133355E-15, 1.224646799147353207E-16, -1.000000000000000000 ) ) ;
#126 = ADVANCED_FACE ( 'NONE', ( #123, #164 ), #48, .T. ) ;
#127 = CC_DESIGN_APPROVAL ( #107, ( #198 ) ) ;
#128 = SECURITY_CLASSIFICATION ( '', '', #32 ) ;
#129 = EDGE_LOOP ( 'NONE', ( #55 ) ) ;
#130 = PLANE ( 'NONE',  #189 ) ;
#131 = DIRECTION ( 'NONE',  ( 0.0000000000000000000, 1.000000000000000000, 0.0000000000000000000 ) ) ;
#132 = DIRECTION ( 'NONE',  ( -3.491481338843133355E-15, 1.224646799147353207E-16, -1.000000000000000000 ) ) ;
#133 = CARTESIAN_POINT ( 'NONE',  ( 0.0000000000000000000, 0.0000000000000000000, 0.0000000000000000000 ) ) ;
#134 = APPROVAL_ROLE ( '' ) ;
#135 = CIRCLE ( 'NONE', #8, 2.999999999999995559 ) ;
#136 = DESIGN_CONTEXT ( 'detailed design', #155, 'design' ) ;
#137 = CC_DESIGN_SECURITY_CLASSIFICATION ( #128, ( #198 ) ) ;
#138 = AXIS2_PLACEMENT_3D ( 'NONE', #28, #26, #184 ) ;
#139 = CARTESIAN_POINT ( 'NONE',  ( 9.776147748760773395E-14, 2.999999999999992450, 28.00000000000000000 ) ) ;
#140 = CALENDAR_DATE ( 2021, 6, 10 ) ;
#141 = DIRECTION ( 'NONE',  ( -5.135813185032641787E-31, -1.000000000000000000, -1.445602896647342861E-16 ) ) ;
#142 = LOCAL_TIME ( 13, 20, 48.00000000000000000, #36 ) ;
#143 = FACE_OUTER_BOUND ( 'NONE', #129, .T. ) ;
#144 = CALENDAR_DATE ( 2021, 6, 10 ) ;
#145 = EDGE_LOOP ( 'NONE', ( #181 ) ) ;
#146 = CALENDAR_DATE ( 2021, 6, 10 ) ;
#147 = EDGE_CURVE ( 'NONE', #76, #76, #62, .T. ) ;
#148 = DIRECTION ( 'NONE',  ( 5.135813185032641787E-31, 1.000000000000000000, 1.445602896647342861E-16 ) ) ;
#149 = FACE_OUTER_BOUND ( 'NONE', #186, .T. ) ;
#150 = AXIS2_PLACEMENT_3D ( 'NONE', #67, #168, #148 ) ;
#151 = PLANE ( 'NONE',  #116 ) ;
#152 = ADVANCED_BREP_SHAPE_REPRESENTATION ( '55673', ( #34, #172, #43 ), #98 ) ;
#153 = DIRECTION ( 'NONE',  ( -3.491481338843133355E-15, 1.224646799147353207E-16, -1.000000000000000000 ) ) ;
#154 = PLANE ( 'NONE',  #185 ) ;
#155 = APPLICATION_CONTEXT ( 'configuration controlled 3d designs of mechanical parts and assemblies' ) ;
#156 = COORDINATED_UNIVERSAL_TIME_OFFSET ( 1, 0, .AHEAD. ) ;
#157 = FACE_OUTER_BOUND ( 'NONE', #88, .T. ) ;
#158 = DATE_AND_TIME ( #144, #195 ) ;
#159 = PERSON_AND_ORGANIZATION ( #73, #192 ) ;
#160 = COORDINATED_UNIVERSAL_TIME_OFFSET ( 1, 0, .AHEAD. ) ;
#161 = DIRECTION ( 'NONE',  ( 3.491481338843133355E-15, -1.224646799147353207E-16, 1.000000000000000000 ) ) ;
#162 = CIRCLE ( 'NONE', #99, 2.300000000000000266 ) ;
#163 = ORIENTED_EDGE ( 'NONE', *, *, #66, .T. ) ;
#164 = FACE_BOUND ( 'NONE', #104, .T. ) ;
#165 = EDGE_LOOP ( 'NONE', ( #42 ) ) ;
#166 = CARTESIAN_POINT ( 'NONE',  ( 2.304377683636468267E-13, -8.082668874372532400E-15, 66.00000000000000000 ) ) ;
#167 = CC_DESIGN_APPROVAL ( #75, ( #169 ) ) ;
#168 = DIRECTION ( 'NONE',  ( -3.491481338843133355E-15, 1.224646799147353207E-16, -1.000000000000000000 ) ) ;
#169 = PRODUCT_DEFINITION ( 'UNKNOWN', '', #198, #136 ) ;
#170 = CYLINDRICAL_SURFACE ( 'NONE', #200, 2.999999999999997780 ) ;
#171 = APPLICATION_PROTOCOL_DEFINITION ( 'international standard', 'config_control_design', 1994, #30 ) ;
#172 = MANIFOLD_SOLID_BREP ( 'Corps-Déplacer/Copier1[2]', #105 ) ;
#173 = ADVANCED_FACE ( 'NONE', ( #29 ), #130, .F. ) ;
#174 =( NAMED_UNIT ( * ) SI_UNIT ( $, .STERADIAN. ) SOLID_ANGLE_UNIT ( ) );
#175 = APPROVAL_PERSON_ORGANIZATION ( #112, #75, #134 ) ;
#176 = APPROVAL_DATE_TIME ( #22, #75 ) ;
#177 = DATE_TIME_ROLE ( 'classification_date' ) ;
#178 =( LENGTH_UNIT ( ) NAMED_UNIT ( * ) SI_UNIT ( .MILLI., .METRE. ) );
#179 = APPROVAL_DATE_TIME ( #21, #107 ) ;
#180 = PRODUCT ( '55673', '55673', '', ( #60 ) ) ;
#181 = ORIENTED_EDGE ( 'NONE', *, *, #190, .F. ) ;
#182 = ADVANCED_FACE ( 'NONE', ( #47 ), #154, .F. ) ;
#183 = ORIENTED_EDGE ( 'NONE', *, *, #202, .F. ) ;
#184 = DIRECTION ( 'NONE',  ( 0.0000000000000000000, 1.000000000000000000, 0.0000000000000000000 ) ) ;
#185 = AXIS2_PLACEMENT_3D ( 'NONE', #12, #161, #18 ) ;
#186 = EDGE_LOOP ( 'NONE', ( #84 ) ) ;
#187 = APPROVAL_STATUS ( 'not_yet_approved' ) ;
#188 = DIRECTION ( 'NONE',  ( 0.0000000000000000000, 1.000000000000000000, 0.0000000000000000000 ) ) ;
#189 = AXIS2_PLACEMENT_3D ( 'NONE', #37, #93, #45 ) ;
#190 = EDGE_CURVE ( 'NONE', #31, #31, #135, .T. ) ;
#191 = VERTEX_POINT ( 'NONE', #72 ) ;
#192 = ORGANIZATION ( 'UNSPECIFIED', 'UNSPECIFIED', '' ) ;
#193 = PERSON_AND_ORGANIZATION_ROLE ( 'design_owner' ) ;
#194 = COORDINATED_UNIVERSAL_TIME_OFFSET ( 1, 0, .AHEAD. ) ;
#195 = LOCAL_TIME ( 13, 20, 48.00000000000000000, #194 ) ;
#196 = PERSON_AND_ORGANIZATION_ROLE ( 'creator' ) ;
#197 = EDGE_LOOP ( 'NONE', ( #102 ) ) ;
#198 = PRODUCT_DEFINITION_FORMATION_WITH_SPECIFIED_SOURCE ( 'ANY', '', #180, .NOT_KNOWN. ) ;
#199 = EDGE_CURVE ( 'NONE', #13, #13, #27, .T. ) ;
#200 = AXIS2_PLACEMENT_3D ( 'NONE', #57, #125, #70 ) ;
#201 = AXIS2_PLACEMENT_3D ( 'NONE', #133, #153, #92 ) ;
#202 = EDGE_CURVE ( 'NONE', #191, #191, #162, .T. ) ;
#203 = CARTESIAN_POINT ( 'NONE',  ( 9.776147748760773395E-14, -3.429011037612589276E-15, 28.00000000000000000 ) ) ;
ENDSEC;
END-ISO-10303-21;
