ISO-10303-21;
HEADER;
FILE_DESCRIPTION (( 'STEP AP203' ),
    '1' );
FILE_NAME ('55671.step',
    '2021-10-06T11:20:46',
    ( '' ),
    ( '' ),
    'SwSTEP 2.0',
    'SolidWorks 2019',
    '' );
FILE_SCHEMA (( 'CONFIG_CONTROL_DESIGN' ));
ENDSEC;

DATA;
#1 = EDGE_LOOP ( 'NONE', ( #92 ) ) ;
#2 = UNCERTAINTY_MEASURE_WITH_UNIT (LENGTH_MEASURE( 1.000000000000000082E-05 ), #184, 'distance_accuracy_value', 'NONE');
#3 = FACE_OUTER_BOUND ( 'NONE', #134, .T. ) ;
#4 = APPROVAL ( #47, 'UNSPECIFIED' ) ;
#5 = FACE_BOUND ( 'NONE', #173, .T. ) ;
#6 = LOCAL_TIME ( 13, 20, 46.00000000000000000, #145 ) ;
#7 = ADVANCED_FACE ( 'NONE', ( #40 ), #104, .F. ) ;
#8 = COORDINATED_UNIVERSAL_TIME_OFFSET ( 1, 0, .AHEAD. ) ;
#9 = AXIS2_PLACEMENT_3D ( 'NONE', #30, #60, #126 ) ;
#10 = DIRECTION ( 'NONE',  ( -4.275831445896958607E-31, -1.000000000000000000, -1.224646799147353207E-16 ) ) ;
#11 = EDGE_LOOP ( 'NONE', ( #201 ) ) ;
#12 = PRODUCT_RELATED_PRODUCT_CATEGORY ( 'detail', '', ( #191 ) ) ;
#13 = FACE_OUTER_BOUND ( 'NONE', #58, .T. ) ;
#14 = VERTEX_POINT ( 'NONE', #62 ) ;
#15 = DIRECTION ( 'NONE',  ( 4.275831445896958607E-31, 1.000000000000000000, 1.224646799147353207E-16 ) ) ;
#16 = AXIS2_PLACEMENT_3D ( 'NONE', #161, #194, #84 ) ;
#17 = PERSON_AND_ORGANIZATION ( #52, #189 ) ;
#18 = FACE_OUTER_BOUND ( 'NONE', #135, .T. ) ;
#19 = DIRECTION ( 'NONE',  ( -3.491481338843133355E-15, 1.224646799147353207E-16, -1.000000000000000000 ) ) ;
#20 = MANIFOLD_SOLID_BREP ( 'Corps-Déplacer/Copier1[1]', #88 ) ;
#21 = CLOSED_SHELL ( 'NONE', ( #163, #127, #108 ) ) ;
#22 = FACE_OUTER_BOUND ( 'NONE', #139, .T. ) ;
#23 = ORIENTED_EDGE ( 'NONE', *, *, #75, .T. ) ;
#24 = ORIENTED_EDGE ( 'NONE', *, *, #75, .F. ) ;
#25 = APPROVAL ( #65, 'UNSPECIFIED' ) ;
#26 = DIRECTION ( 'NONE',  ( -3.491481338843133355E-15, 1.224646799147353207E-16, -1.000000000000000000 ) ) ;
#27 = DATE_TIME_ROLE ( 'classification_date' ) ;
#28 = DATE_TIME_ROLE ( 'creation_date' ) ;
#29 = CARTESIAN_POINT ( 'NONE',  ( 0.0000000000000000000, 0.0000000000000000000, 0.0000000000000000000 ) ) ;
#30 = CARTESIAN_POINT ( 'NONE',  ( 4.477287338171553258E-15, -1.570420997687913525E-16, 1.282346059926259496 ) ) ;
#31 = MECHANICAL_CONTEXT ( 'NONE', #53, 'mechanical' ) ;
#32 = DIRECTION ( 'NONE',  ( -3.491481338843133355E-15, 1.224646799147353207E-16, -1.000000000000000000 ) ) ;
#33 = COORDINATED_UNIVERSAL_TIME_OFFSET ( 1, 0, .AHEAD. ) ;
#34 = CC_DESIGN_PERSON_AND_ORGANIZATION_ASSIGNMENT ( #17, #185, ( #191 ) ) ;
#35 = CC_DESIGN_APPROVAL ( #113, ( #101 ) ) ;
#36 = PERSON_AND_ORGANIZATION ( #52, #189 ) ;
#37 = APPROVAL_DATE_TIME ( #74, #113 ) ;
#38 = DIRECTION ( 'NONE',  ( -3.491481338843133355E-15, 1.224646799147353207E-16, -1.000000000000000000 ) ) ;
#39 = LOCAL_TIME ( 13, 20, 46.00000000000000000, #33 ) ;
#40 = FACE_OUTER_BOUND ( 'NONE', #1, .T. ) ;
#41 = EDGE_LOOP ( 'NONE', ( #152 ) ) ;
#42 = PLANE ( 'NONE',  #85 ) ;
#43 = DIRECTION ( 'NONE',  ( 1.000000000000000000, 0.0000000000000000000, 0.0000000000000000000 ) ) ;
#44 = CARTESIAN_POINT ( 'NONE',  ( 9.776147748760773395E-14, -3.429011037612589276E-15, 28.00000000000000000 ) ) ;
#45 = AXIS2_PLACEMENT_3D ( 'NONE', #73, #38, #96 ) ;
#46 = VERTEX_POINT ( 'NONE', #110 ) ;
#47 = APPROVAL_STATUS ( 'not_yet_approved' ) ;
#48 = APPROVAL_ROLE ( '' ) ;
#49 = PERSON_AND_ORGANIZATION_ROLE ( 'creator' ) ;
#50 = ADVANCED_BREP_SHAPE_REPRESENTATION ( '55671', ( #20, #160, #132 ), #142 ) ;
#51 = AXIS2_PLACEMENT_3D ( 'NONE', #94, #158, #192 ) ;
#52 = PERSON ( 'UNSPECIFIED', 'UNSPECIFIED', 'UNSPECIFIED', ('UNSPECIFIED'), ('UNSPECIFIED'), ('UNSPECIFIED') ) ;
#53 = APPLICATION_CONTEXT ( 'configuration controlled 3d designs of mechanical parts and assemblies' ) ;
#54 = CC_DESIGN_PERSON_AND_ORGANIZATION_ASSIGNMENT ( #76, #138, ( #86 ) ) ;
#55 = PRODUCT_DEFINITION_SHAPE ( 'NONE', 'NONE',  #86 ) ;
#56 = APPROVAL_PERSON_ORGANIZATION ( #98, #4, #111 ) ;
#57 = CALENDAR_DATE ( 2021, 6, 10 ) ;
#58 = EDGE_LOOP ( 'NONE', ( #120 ) ) ;
#59 = CIRCLE ( 'NONE', #16, 2.150000000000000799 ) ;
#60 = DIRECTION ( 'NONE',  ( 3.491481338843133355E-15, -1.224646799147353207E-16, 1.000000000000000000 ) ) ;
#61 = CARTESIAN_POINT ( 'NONE',  ( 0.0000000000000000000, 0.0000000000000000000, 0.0000000000000000000 ) ) ;
#62 = CARTESIAN_POINT ( 'NONE',  ( 9.776147748760773395E-14, 2.749999999999992450, 28.00000000000000000 ) ) ;
#63 = FACE_OUTER_BOUND ( 'NONE', #190, .T. ) ;
#64 = LOCAL_TIME ( 13, 20, 46.00000000000000000, #8 ) ;
#65 = APPROVAL_STATUS ( 'not_yet_approved' ) ;
#66 = SHAPE_DEFINITION_REPRESENTATION ( #55, #50 ) ;
#67 = CONICAL_SURFACE ( 'NONE', #102, 2.150000000000000799, 0.7853981633974450594 ) ;
#68 = DATE_AND_TIME ( #164, #6 ) ;
#69 = CALENDAR_DATE ( 2021, 6, 10 ) ;
#70 = ADVANCED_FACE ( 'NONE', ( #22 ), #93, .F. ) ;
#71 = AXIS2_PLACEMENT_3D ( 'NONE', #154, #156, #123 ) ;
#72 = CIRCLE ( 'NONE', #51, 2.750000000000000444 ) ;
#73 = CARTESIAN_POINT ( 'NONE',  ( 4.477287338171553258E-15, -1.570420997687913525E-16, 1.282346059926259496 ) ) ;
#74 = DATE_AND_TIME ( #131, #183 ) ;
#75 = EDGE_CURVE ( 'NONE', #144, #144, #202, .T. ) ;
#76 = PERSON_AND_ORGANIZATION ( #52, #189 ) ;
#77 = DATE_AND_TIME ( #57, #119 ) ;
#78 = PERSON_AND_ORGANIZATION ( #52, #189 ) ;
#79 = DIRECTION ( 'NONE',  ( 4.275831445896958607E-31, 1.000000000000000000, 1.224646799147353207E-16 ) ) ;
#80 = FACE_OUTER_BOUND ( 'NONE', #121, .T. ) ;
#81 =( NAMED_UNIT ( * ) PLANE_ANGLE_UNIT ( ) SI_UNIT ( $, .RADIAN. ) );
#82 = FACE_OUTER_BOUND ( 'NONE', #41, .T. ) ;
#83 = CC_DESIGN_DATE_AND_TIME_ASSIGNMENT ( #128, #27, ( #157 ) ) ;
#84 = DIRECTION ( 'NONE',  ( 0.0000000000000000000, 1.000000000000000000, 0.0000000000000000000 ) ) ;
#85 = AXIS2_PLACEMENT_3D ( 'NONE', #187, #90, #10 ) ;
#86 = PRODUCT_DEFINITION ( 'UNKNOWN', '', #101, #100 ) ;
#87 = PERSON_AND_ORGANIZATION ( #52, #189 ) ;
#88 = CLOSED_SHELL ( 'NONE', ( #70, #146, #169, #7 ) ) ;
#89 = CC_DESIGN_PERSON_AND_ORGANIZATION_ASSIGNMENT ( #148, #150, ( #101 ) ) ;
#90 = DIRECTION ( 'NONE',  ( 3.491481338843133355E-15, -1.224646799147353207E-16, 1.000000000000000000 ) ) ;
#91 = ORIENTED_EDGE ( 'NONE', *, *, #181, .T. ) ;
#92 = ORIENTED_EDGE ( 'NONE', *, *, #199, .F. ) ;
#93 = PLANE ( 'NONE',  #71 ) ;
#94 = CARTESIAN_POINT ( 'NONE',  ( 2.283428795603408836E-13, -8.009190066423689102E-15, 65.40000000000000568 ) ) ;
#95 = DIRECTION ( 'NONE',  ( 0.0000000000000000000, 1.000000000000000000, 0.0000000000000000000 ) ) ;
#96 = DIRECTION ( 'NONE',  ( 5.602705292762883542E-31, 1.000000000000000000, 1.577021341797101751E-16 ) ) ;
#97 = DIRECTION ( 'NONE',  ( 0.0000000000000000000, 1.000000000000000000, 0.0000000000000000000 ) ) ;
#98 = PERSON_AND_ORGANIZATION ( #52, #189 ) ;
#99 = EDGE_CURVE ( 'NONE', #195, #195, #72, .T. ) ;
#100 = DESIGN_CONTEXT ( 'detailed design', #136, 'design' ) ;
#101 = PRODUCT_DEFINITION_FORMATION_WITH_SPECIFIED_SOURCE ( 'ANY', '', #191, .NOT_KNOWN. ) ;
#102 = AXIS2_PLACEMENT_3D ( 'NONE', #143, #124, #95 ) ;
#103 = DIRECTION ( 'NONE',  ( 4.275831445896958607E-31, 1.000000000000000000, 1.224646799147353207E-16 ) ) ;
#104 = PLANE ( 'NONE',  #137 ) ;
#105 = AXIS2_PLACEMENT_3D ( 'NONE', #29, #129, #79 ) ;
#106 = CYLINDRICAL_SURFACE ( 'NONE', #105, 2.749999999999998224 ) ;
#107 = CARTESIAN_POINT ( 'NONE',  ( 0.0000000000000000000, 0.0000000000000000000, 0.0000000000000000000 ) ) ;
#108 = ADVANCED_FACE ( 'NONE', ( #13 ), #42, .T. ) ;
#109 = CARTESIAN_POINT ( 'NONE',  ( 2.304377683636468267E-13, 2.149999999999992806, 66.00000000000000000 ) ) ;
#110 = CARTESIAN_POINT ( 'NONE',  ( 4.477287338171554836E-15, 2.749999999999992450, 1.282346059926259940 ) ) ;
#111 = APPROVAL_ROLE ( '' ) ;
#112 = CALENDAR_DATE ( 2021, 6, 10 ) ;
#113 = APPROVAL ( #140, 'UNSPECIFIED' ) ;
#114 = COORDINATED_UNIVERSAL_TIME_OFFSET ( 1, 0, .AHEAD. ) ;
#115 = APPROVAL_ROLE ( '' ) ;
#116 = CARTESIAN_POINT ( 'NONE',  ( 9.776147748760773395E-14, -3.429011037612589276E-15, 28.00000000000000000 ) ) ;
#117 = EDGE_CURVE ( 'NONE', #46, #46, #200, .T. ) ;
#118 = ORIENTED_EDGE ( 'NONE', *, *, #99, .T. ) ;
#119 = LOCAL_TIME ( 13, 20, 46.00000000000000000, #203 ) ;
#120 = ORIENTED_EDGE ( 'NONE', *, *, #181, .F. ) ;
#121 = EDGE_LOOP ( 'NONE', ( #91 ) ) ;
#122 = CC_DESIGN_DATE_AND_TIME_ASSIGNMENT ( #77, #28, ( #86 ) ) ;
#123 = DIRECTION ( 'NONE',  ( -4.275831445896958607E-31, -1.000000000000000000, -1.224646799147353207E-16 ) ) ;
#124 = DIRECTION ( 'NONE',  ( -3.491481338843133355E-15, 1.224646799147353207E-16, -1.000000000000000000 ) ) ;
#125 = DIRECTION ( 'NONE',  ( 0.0000000000000000000, 0.0000000000000000000, 1.000000000000000000 ) ) ;
#126 = DIRECTION ( 'NONE',  ( -5.602705292762883542E-31, -1.000000000000000000, -1.577021341797101751E-16 ) ) ;
#127 = ADVANCED_FACE ( 'NONE', ( #3, #80 ), #162, .T. ) ;
#128 = DATE_AND_TIME ( #69, #64 ) ;
#129 = DIRECTION ( 'NONE',  ( -3.491481338843133355E-15, 1.224646799147353207E-16, -1.000000000000000000 ) ) ;
#130 = FACE_OUTER_BOUND ( 'NONE', #11, .T. ) ;
#131 = CALENDAR_DATE ( 2021, 6, 10 ) ;
#132 = AXIS2_PLACEMENT_3D ( 'NONE', #61, #125, #43 ) ;
#133 = CC_DESIGN_APPROVAL ( #25, ( #157 ) ) ;
#134 = EDGE_LOOP ( 'NONE', ( #176 ) ) ;
#135 = EDGE_LOOP ( 'NONE', ( #24 ) ) ;
#136 = APPLICATION_CONTEXT ( 'configuration controlled 3d designs of mechanical parts and assemblies' ) ;
#137 = AXIS2_PLACEMENT_3D ( 'NONE', #174, #26, #103 ) ;
#138 = PERSON_AND_ORGANIZATION_ROLE ( 'creator' ) ;
#139 = EDGE_LOOP ( 'NONE', ( #23 ) ) ;
#140 = APPROVAL_STATUS ( 'not_yet_approved' ) ;
#141 = VERTEX_POINT ( 'NONE', #109 ) ;
#142 =( GEOMETRIC_REPRESENTATION_CONTEXT ( 3 ) GLOBAL_UNCERTAINTY_ASSIGNED_CONTEXT ( ( #2 ) ) GLOBAL_UNIT_ASSIGNED_CONTEXT ( ( #184, #81, #159 ) ) REPRESENTATION_CONTEXT ( 'NONE', 'WORKASPACE' ) );
#143 = CARTESIAN_POINT ( 'NONE',  ( 2.304377683636468267E-13, -8.082668874372532400E-15, 66.00000000000000000 ) ) ;
#144 = VERTEX_POINT ( 'NONE', #180 ) ;
#145 = COORDINATED_UNIVERSAL_TIME_OFFSET ( 1, 0, .AHEAD. ) ;
#146 = ADVANCED_FACE ( 'NONE', ( #18, #63 ), #106, .T. ) ;
#147 = APPROVAL_PERSON_ORGANIZATION ( #78, #113, #48 ) ;
#148 = PERSON_AND_ORGANIZATION ( #52, #189 ) ;
#149 = SECURITY_CLASSIFICATION_LEVEL ( 'unclassified' ) ;
#150 = PERSON_AND_ORGANIZATION_ROLE ( 'design_supplier' ) ;
#151 = DIRECTION ( 'NONE',  ( -3.491481338843133355E-15, 1.224646799147353207E-16, -1.000000000000000000 ) ) ;
#152 = ORIENTED_EDGE ( 'NONE', *, *, #117, .T. ) ;
#153 = APPROVAL_DATE_TIME ( #155, #4 ) ;
#154 = CARTESIAN_POINT ( 'NONE',  ( 9.776147748760773395E-14, 2.062169701160046274E-32, 28.00000000000000000 ) ) ;
#155 = DATE_AND_TIME ( #112, #39 ) ;
#156 = DIRECTION ( 'NONE',  ( 3.491481338843133355E-15, -1.224646799147353207E-16, 1.000000000000000000 ) ) ;
#157 = SECURITY_CLASSIFICATION ( '', '', #149 ) ;
#158 = DIRECTION ( 'NONE',  ( -3.491481338843133355E-15, 1.224646799147353207E-16, -1.000000000000000000 ) ) ;
#159 =( NAMED_UNIT ( * ) SI_UNIT ( $, .STERADIAN. ) SOLID_ANGLE_UNIT ( ) );
#160 = MANIFOLD_SOLID_BREP ( 'Corps-Déplacer/Copier1[2]', #21 ) ;
#161 = CARTESIAN_POINT ( 'NONE',  ( 2.304377683636468267E-13, -8.082668874372532400E-15, 66.00000000000000000 ) ) ;
#162 = CYLINDRICAL_SURFACE ( 'NONE', #198, 2.749999999999994227 ) ;
#163 = ADVANCED_FACE ( 'NONE', ( #82 ), #170, .T. ) ;
#164 = CALENDAR_DATE ( 2021, 6, 10 ) ;
#165 = AXIS2_PLACEMENT_3D ( 'NONE', #44, #32, #97 ) ;
#166 = APPLICATION_PROTOCOL_DEFINITION ( 'international standard', 'config_control_design', 1994, #136 ) ;
#167 = PERSON_AND_ORGANIZATION ( #52, #189 ) ;
#168 = APPROVAL_DATE_TIME ( #68, #25 ) ;
#169 = ADVANCED_FACE ( 'NONE', ( #130, #5 ), #67, .T. ) ;
#170 = CONICAL_SURFACE ( 'NONE', #9, 2.749999999999992450, 1.134464013796309123 ) ;
#171 = PERSON_AND_ORGANIZATION_ROLE ( 'classification_officer' ) ;
#172 = CC_DESIGN_PERSON_AND_ORGANIZATION_ASSIGNMENT ( #36, #171, ( #157 ) ) ;
#173 = EDGE_LOOP ( 'NONE', ( #188 ) ) ;
#174 = CARTESIAN_POINT ( 'NONE',  ( 2.304377683636468267E-13, 1.612241766361485433E-32, 66.00000000000000000 ) ) ;
#175 = CC_DESIGN_PERSON_AND_ORGANIZATION_ASSIGNMENT ( #87, #49, ( #101 ) ) ;
#176 = ORIENTED_EDGE ( 'NONE', *, *, #117, .F. ) ;
#177 = DIRECTION ( 'NONE',  ( 0.0000000000000000000, 1.000000000000000000, 0.0000000000000000000 ) ) ;
#178 = AXIS2_PLACEMENT_3D ( 'NONE', #116, #151, #177 ) ;
#179 = CC_DESIGN_SECURITY_CLASSIFICATION ( #157, ( #101 ) ) ;
#180 = CARTESIAN_POINT ( 'NONE',  ( 9.776147748760773395E-14, 2.749999999999992450, 28.00000000000000000 ) ) ;
#181 = EDGE_CURVE ( 'NONE', #14, #14, #193, .T. ) ;
#182 = APPLICATION_PROTOCOL_DEFINITION ( 'international standard', 'config_control_design', 1994, #53 ) ;
#183 = LOCAL_TIME ( 13, 20, 46.00000000000000000, #114 ) ;
#184 =( LENGTH_UNIT ( ) NAMED_UNIT ( * ) SI_UNIT ( .MILLI., .METRE. ) );
#185 = PERSON_AND_ORGANIZATION_ROLE ( 'design_owner' ) ;
#186 = APPROVAL_PERSON_ORGANIZATION ( #167, #25, #115 ) ;
#187 = CARTESIAN_POINT ( 'NONE',  ( 9.776147748760773395E-14, 2.062169701160046274E-32, 28.00000000000000000 ) ) ;
#188 = ORIENTED_EDGE ( 'NONE', *, *, #199, .T. ) ;
#189 = ORGANIZATION ( 'UNSPECIFIED', 'UNSPECIFIED', '' ) ;
#190 = EDGE_LOOP ( 'NONE', ( #118 ) ) ;
#191 = PRODUCT ( '55671', '55671', '', ( #31 ) ) ;
#192 = DIRECTION ( 'NONE',  ( 0.0000000000000000000, 1.000000000000000000, 0.0000000000000000000 ) ) ;
#193 = CIRCLE ( 'NONE', #165, 2.749999999999996003 ) ;
#194 = DIRECTION ( 'NONE',  ( -3.491481338843133355E-15, 1.224646799147353207E-16, -1.000000000000000000 ) ) ;
#195 = VERTEX_POINT ( 'NONE', #197 ) ;
#196 = CC_DESIGN_APPROVAL ( #4, ( #86 ) ) ;
#197 = CARTESIAN_POINT ( 'NONE',  ( 2.283428795603408836E-13, 2.749999999999992450, 65.40000000000000568 ) ) ;
#198 = AXIS2_PLACEMENT_3D ( 'NONE', #107, #19, #15 ) ;
#199 = EDGE_CURVE ( 'NONE', #141, #141, #59, .T. ) ;
#200 = CIRCLE ( 'NONE', #45, 2.749999999999992450 ) ;
#201 = ORIENTED_EDGE ( 'NONE', *, *, #99, .F. ) ;
#202 = CIRCLE ( 'NONE', #178, 2.749999999999996003 ) ;
#203 = COORDINATED_UNIVERSAL_TIME_OFFSET ( 1, 0, .AHEAD. ) ;
ENDSEC;
END-ISO-10303-21;
