ISO-10303-21;
HEADER;
FILE_DESCRIPTION (( 'STEP AP203' ),
    '1' );
FILE_NAME ('55669.step',
    '2021-10-06T11:20:43',
    ( '' ),
    ( '' ),
    'SwSTEP 2.0',
    'SolidWorks 2019',
    '' );
FILE_SCHEMA (( 'CONFIG_CONTROL_DESIGN' ));
ENDSEC;

DATA;
#1 =( NAMED_UNIT ( * ) SI_UNIT ( $, .STERADIAN. ) SOLID_ANGLE_UNIT ( ) );
#2 = AXIS2_PLACEMENT_3D ( 'NONE', #85, #11, #182 ) ;
#3 = PERSON_AND_ORGANIZATION ( #179, #185 ) ;
#4 = LOCAL_TIME ( 13, 20, 43.00000000000000000, #31 ) ;
#5 = SHAPE_DEFINITION_REPRESENTATION ( #90, #33 ) ;
#6 = ORIENTED_EDGE ( 'NONE', *, *, #77, .F. ) ;
#7 = CARTESIAN_POINT ( 'NONE',  ( 0.0000000000000000000, 0.0000000000000000000, 0.0000000000000000000 ) ) ;
#8 = APPLICATION_CONTEXT ( 'configuration controlled 3d designs of mechanical parts and assemblies' ) ;
#9 = APPROVAL ( #188, 'UNSPECIFIED' ) ;
#10 = CARTESIAN_POINT ( 'NONE',  ( 4.070261216519594373E-15, -1.427655452443558176E-16, 1.165769145387508754 ) ) ;
#11 = DIRECTION ( 'NONE',  ( -3.491481338843133355E-15, 1.224646799147353207E-16, -1.000000000000000000 ) ) ;
#12 = DIRECTION ( 'NONE',  ( 4.275831445896959482E-31, 1.000000000000000000, 1.224646799147353454E-16 ) ) ;
#13 = DIRECTION ( 'NONE',  ( 0.0000000000000000000, 1.000000000000000000, 0.0000000000000000000 ) ) ;
#14 = AXIS2_PLACEMENT_3D ( 'NONE', #104, #117, #12 ) ;
#15 = CALENDAR_DATE ( 2021, 6, 10 ) ;
#16 = PRODUCT ( '55669', '55669', '', ( #126 ) ) ;
#17 = DATE_TIME_ROLE ( 'creation_date' ) ;
#18 = PERSON_AND_ORGANIZATION_ROLE ( 'design_owner' ) ;
#19 = CIRCLE ( 'NONE', #63, 2.499999999999992895 ) ;
#20 = COORDINATED_UNIVERSAL_TIME_OFFSET ( 1, 0, .AHEAD. ) ;
#21 = EDGE_CURVE ( 'NONE', #86, #86, #100, .T. ) ;
#22 = ORIENTED_EDGE ( 'NONE', *, *, #123, .T. ) ;
#23 = CLOSED_SHELL ( 'NONE', ( #97, #28, #114, #196 ) ) ;
#24 = DIRECTION ( 'NONE',  ( -3.491481338843133355E-15, 1.224646799147353207E-16, -1.000000000000000000 ) ) ;
#25 = FACE_OUTER_BOUND ( 'NONE', #79, .T. ) ;
#26 = EDGE_LOOP ( 'NONE', ( #22 ) ) ;
#27 =( GEOMETRIC_REPRESENTATION_CONTEXT ( 3 ) GLOBAL_UNCERTAINTY_ASSIGNED_CONTEXT ( ( #93 ) ) GLOBAL_UNIT_ASSIGNED_CONTEXT ( ( #191, #190, #1 ) ) REPRESENTATION_CONTEXT ( 'NONE', 'WORKASPACE' ) );
#28 = ADVANCED_FACE ( 'NONE', ( #150, #149 ), #66, .T. ) ;
#29 = CARTESIAN_POINT ( 'NONE',  ( 9.077851480992146724E-14, -3.184081677783118191E-15, 26.00000000000000000 ) ) ;
#30 = CARTESIAN_POINT ( 'NONE',  ( 2.164718430082742680E-13, 1.424771793528753780E-32, 62.00000000000000000 ) ) ;
#31 = COORDINATED_UNIVERSAL_TIME_OFFSET ( 1, 0, .AHEAD. ) ;
#32 = AXIS2_PLACEMENT_3D ( 'NONE', #183, #53, #13 ) ;
#33 = ADVANCED_BREP_SHAPE_REPRESENTATION ( '55669', ( #164, #163, #200 ), #27 ) ;
#34 = DATE_AND_TIME ( #76, #80 ) ;
#35 = DIRECTION ( 'NONE',  ( 1.000000000000000000, 0.0000000000000000000, 0.0000000000000000000 ) ) ;
#36 = SECURITY_CLASSIFICATION_LEVEL ( 'unclassified' ) ;
#37 = AXIS2_PLACEMENT_3D ( 'NONE', #30, #137, #198 ) ;
#38 = ORIENTED_EDGE ( 'NONE', *, *, #123, .F. ) ;
#39 = ORIENTED_EDGE ( 'NONE', *, *, #21, .T. ) ;
#40 = CARTESIAN_POINT ( 'NONE',  ( 2.143769542049683754E-13, 2.499999999999992895, 61.39999999999999858 ) ) ;
#41 = DIRECTION ( 'NONE',  ( -3.491481338843133355E-15, 1.224646799147353207E-16, -1.000000000000000000 ) ) ;
#42 = DIRECTION ( 'NONE',  ( 0.0000000000000000000, 1.000000000000000000, 0.0000000000000000000 ) ) ;
#43 = AXIS2_PLACEMENT_3D ( 'NONE', #10, #135, #166 ) ;
#44 = DIRECTION ( 'NONE',  ( 0.0000000000000000000, 1.000000000000000000, 0.0000000000000000000 ) ) ;
#45 = CARTESIAN_POINT ( 'NONE',  ( 9.077851480992146724E-14, 1.874699728327314620E-32, 26.00000000000000000 ) ) ;
#46 = CALENDAR_DATE ( 2021, 6, 10 ) ;
#47 = APPROVAL_PERSON_ORGANIZATION ( #3, #151, #193 ) ;
#48 = PERSON_AND_ORGANIZATION ( #179, #185 ) ;
#49 = APPROVAL_ROLE ( '' ) ;
#50 = ADVANCED_FACE ( 'NONE', ( #186 ), #70, .T. ) ;
#51 = APPROVAL_PERSON_ORGANIZATION ( #203, #9, #49 ) ;
#52 = APPROVAL_DATE_TIME ( #131, #151 ) ;
#53 = DIRECTION ( 'NONE',  ( -3.491481338843133355E-15, 1.224646799147353207E-16, -1.000000000000000000 ) ) ;
#54 = CARTESIAN_POINT ( 'NONE',  ( 4.070261216519594373E-15, -1.427655452443558176E-16, 1.165769145387508754 ) ) ;
#55 = VERTEX_POINT ( 'NONE', #118 ) ;
#56 = FACE_OUTER_BOUND ( 'NONE', #160, .T. ) ;
#57 = CC_DESIGN_APPROVAL ( #68, ( #111 ) ) ;
#58 = EDGE_LOOP ( 'NONE', ( #99 ) ) ;
#59 = ADVANCED_FACE ( 'NONE', ( #56, #25 ), #119, .T. ) ;
#60 = VERTEX_POINT ( 'NONE', #87 ) ;
#61 = PERSON_AND_ORGANIZATION_ROLE ( 'design_supplier' ) ;
#62 = APPROVAL_STATUS ( 'not_yet_approved' ) ;
#63 = AXIS2_PLACEMENT_3D ( 'NONE', #54, #24, #170 ) ;
#64 = EDGE_CURVE ( 'NONE', #55, #55, #140, .T. ) ;
#65 = APPROVAL_STATUS ( 'not_yet_approved' ) ;
#66 = CYLINDRICAL_SURFACE ( 'NONE', #14, 2.499999999999998224 ) ;
#67 = LOCAL_TIME ( 13, 20, 43.00000000000000000, #94 ) ;
#68 = APPROVAL ( #62, 'UNSPECIFIED' ) ;
#69 = DIRECTION ( 'NONE',  ( -3.491481338843133355E-15, 1.224646799147353207E-16, -1.000000000000000000 ) ) ;
#70 = PLANE ( 'NONE',  #74 ) ;
#71 = DIRECTION ( 'NONE',  ( 0.0000000000000000000, 1.000000000000000000, 0.0000000000000000000 ) ) ;
#72 = PERSON_AND_ORGANIZATION_ROLE ( 'creator' ) ;
#73 = CARTESIAN_POINT ( 'NONE',  ( 9.077851480992146724E-14, 2.499999999999992895, 26.00000000000000000 ) ) ;
#74 = AXIS2_PLACEMENT_3D ( 'NONE', #138, #199, #169 ) ;
#75 = APPLICATION_PROTOCOL_DEFINITION ( 'international standard', 'config_control_design', 1994, #148 ) ;
#76 = CALENDAR_DATE ( 2021, 6, 10 ) ;
#77 = EDGE_CURVE ( 'NONE', #173, #173, #146, .T. ) ;
#78 = PRODUCT_DEFINITION ( 'UNKNOWN', '', #111, #105 ) ;
#79 = EDGE_LOOP ( 'NONE', ( #184 ) ) ;
#80 = LOCAL_TIME ( 13, 20, 43.00000000000000000, #20 ) ;
#81 = DIRECTION ( 'NONE',  ( 3.491481338843133355E-15, -1.224646799147353207E-16, 1.000000000000000000 ) ) ;
#82 = FACE_BOUND ( 'NONE', #98, .T. ) ;
#83 = PRODUCT_RELATED_PRODUCT_CATEGORY ( 'detail', '', ( #16 ) ) ;
#84 = FACE_OUTER_BOUND ( 'NONE', #58, .T. ) ;
#85 = CARTESIAN_POINT ( 'NONE',  ( 2.164718430082742680E-13, -7.592810154713590230E-15, 62.00000000000000000 ) ) ;
#86 = VERTEX_POINT ( 'NONE', #40 ) ;
#87 = CARTESIAN_POINT ( 'NONE',  ( 4.070261216519595162E-15, 2.499999999999992895, 1.165769145387508976 ) ) ;
#88 = CONICAL_SURFACE ( 'NONE', #2, 1.900000000000000799, 0.7853981633974452814 ) ;
#89 = DATE_AND_TIME ( #141, #106 ) ;
#90 = PRODUCT_DEFINITION_SHAPE ( 'NONE', 'NONE',  #78 ) ;
#91 = COORDINATED_UNIVERSAL_TIME_OFFSET ( 1, 0, .AHEAD. ) ;
#92 = CARTESIAN_POINT ( 'NONE',  ( 0.0000000000000000000, 0.0000000000000000000, 0.0000000000000000000 ) ) ;
#93 = UNCERTAINTY_MEASURE_WITH_UNIT (LENGTH_MEASURE( 1.000000000000000082E-05 ), #191, 'distance_accuracy_value', 'NONE');
#94 = COORDINATED_UNIVERSAL_TIME_OFFSET ( 1, 0, .AHEAD. ) ;
#95 = AXIS2_PLACEMENT_3D ( 'NONE', #121, #69, #42 ) ;
#96 = ORIENTED_EDGE ( 'NONE', *, *, #77, .T. ) ;
#97 = ADVANCED_FACE ( 'NONE', ( #165 ), #109, .F. ) ;
#98 = EDGE_LOOP ( 'NONE', ( #101 ) ) ;
#99 = ORIENTED_EDGE ( 'NONE', *, *, #64, .F. ) ;
#100 = CIRCLE ( 'NONE', #95, 2.500000000000000444 ) ;
#101 = ORIENTED_EDGE ( 'NONE', *, *, #64, .T. ) ;
#102 = CC_DESIGN_PERSON_AND_ORGANIZATION_ASSIGNMENT ( #143, #18, ( #16 ) ) ;
#103 = FACE_OUTER_BOUND ( 'NONE', #26, .T. ) ;
#104 = CARTESIAN_POINT ( 'NONE',  ( 0.0000000000000000000, 0.0000000000000000000, 0.0000000000000000000 ) ) ;
#105 = DESIGN_CONTEXT ( 'detailed design', #148, 'design' ) ;
#106 = LOCAL_TIME ( 13, 20, 43.00000000000000000, #91 ) ;
#107 = EDGE_CURVE ( 'NONE', #129, #129, #145, .T. ) ;
#108 = FACE_OUTER_BOUND ( 'NONE', #154, .T. ) ;
#109 = PLANE ( 'NONE',  #195 ) ;
#110 = PERSON_AND_ORGANIZATION ( #179, #185 ) ;
#111 = PRODUCT_DEFINITION_FORMATION_WITH_SPECIFIED_SOURCE ( 'ANY', '', #16, .NOT_KNOWN. ) ;
#112 = APPROVAL_DATE_TIME ( #127, #68 ) ;
#113 = EDGE_LOOP ( 'NONE', ( #39 ) ) ;
#114 = ADVANCED_FACE ( 'NONE', ( #108, #82 ), #88, .T. ) ;
#115 = CLOSED_SHELL ( 'NONE', ( #180, #59, #50 ) ) ;
#116 = DIRECTION ( 'NONE',  ( -4.275831445896958607E-31, -1.000000000000000000, -1.224646799147353207E-16 ) ) ;
#117 = DIRECTION ( 'NONE',  ( -3.491481338843133355E-15, 1.224646799147353207E-16, -1.000000000000000000 ) ) ;
#118 = CARTESIAN_POINT ( 'NONE',  ( 2.164718430082742680E-13, 1.899999999999993250, 62.00000000000000000 ) ) ;
#119 = CYLINDRICAL_SURFACE ( 'NONE', #130, 2.499999999999994227 ) ;
#120 = CC_DESIGN_APPROVAL ( #9, ( #78 ) ) ;
#121 = CARTESIAN_POINT ( 'NONE',  ( 2.143769542049683754E-13, -7.519331346764748510E-15, 61.39999999999999858 ) ) ;
#122 = COORDINATED_UNIVERSAL_TIME_OFFSET ( 1, 0, .AHEAD. ) ;
#123 = EDGE_CURVE ( 'NONE', #60, #60, #19, .T. ) ;
#124 = DIRECTION ( 'NONE',  ( 0.0000000000000000000, 0.0000000000000000000, 1.000000000000000000 ) ) ;
#125 = CC_DESIGN_SECURITY_CLASSIFICATION ( #168, ( #111 ) ) ;
#126 = MECHANICAL_CONTEXT ( 'NONE', #8, 'mechanical' ) ;
#127 = DATE_AND_TIME ( #46, #147 ) ;
#128 = CC_DESIGN_PERSON_AND_ORGANIZATION_ASSIGNMENT ( #110, #202, ( #111 ) ) ;
#129 = VERTEX_POINT ( 'NONE', #73 ) ;
#130 = AXIS2_PLACEMENT_3D ( 'NONE', #7, #194, #153 ) ;
#131 = DATE_AND_TIME ( #162, #67 ) ;
#132 = EDGE_LOOP ( 'NONE', ( #96 ) ) ;
#133 = EDGE_LOOP ( 'NONE', ( #187 ) ) ;
#134 = CONICAL_SURFACE ( 'NONE', #43, 2.499999999999992895, 1.134464013796309123 ) ;
#135 = DIRECTION ( 'NONE',  ( 3.491481338843133355E-15, -1.224646799147353207E-16, 1.000000000000000000 ) ) ;
#136 = CC_DESIGN_PERSON_AND_ORGANIZATION_ASSIGNMENT ( #48, #72, ( #78 ) ) ;
#137 = DIRECTION ( 'NONE',  ( -3.491481338843133355E-15, 1.224646799147353207E-16, -1.000000000000000000 ) ) ;
#138 = CARTESIAN_POINT ( 'NONE',  ( 9.077851480992146724E-14, 1.874699728327314620E-32, 26.00000000000000000 ) ) ;
#139 = DIRECTION ( 'NONE',  ( -3.491481338843133355E-15, 1.224646799147353207E-16, -1.000000000000000000 ) ) ;
#140 = CIRCLE ( 'NONE', #32, 1.900000000000000799 ) ;
#141 = CALENDAR_DATE ( 2021, 6, 10 ) ;
#142 = CC_DESIGN_PERSON_AND_ORGANIZATION_ASSIGNMENT ( #172, #159, ( #168 ) ) ;
#143 = PERSON_AND_ORGANIZATION ( #179, #185 ) ;
#144 = APPROVAL_ROLE ( '' ) ;
#145 = CIRCLE ( 'NONE', #181, 2.499999999999996003 ) ;
#146 = CIRCLE ( 'NONE', #156, 2.499999999999996003 ) ;
#147 = LOCAL_TIME ( 13, 20, 43.00000000000000000, #122 ) ;
#148 = APPLICATION_CONTEXT ( 'configuration controlled 3d designs of mechanical parts and assemblies' ) ;
#149 = FACE_OUTER_BOUND ( 'NONE', #113, .T. ) ;
#150 = FACE_OUTER_BOUND ( 'NONE', #178, .T. ) ;
#151 = APPROVAL ( #65, 'UNSPECIFIED' ) ;
#152 = PLANE ( 'NONE',  #37 ) ;
#153 = DIRECTION ( 'NONE',  ( 4.275831445896958607E-31, 1.000000000000000000, 1.224646799147353207E-16 ) ) ;
#154 = EDGE_LOOP ( 'NONE', ( #192 ) ) ;
#155 = APPROVAL_DATE_TIME ( #158, #9 ) ;
#156 = AXIS2_PLACEMENT_3D ( 'NONE', #29, #41, #44 ) ;
#157 = DATE_TIME_ROLE ( 'classification_date' ) ;
#158 = DATE_AND_TIME ( #15, #4 ) ;
#159 = PERSON_AND_ORGANIZATION_ROLE ( 'classification_officer' ) ;
#160 = EDGE_LOOP ( 'NONE', ( #38 ) ) ;
#161 = CC_DESIGN_DATE_AND_TIME_ASSIGNMENT ( #89, #17, ( #78 ) ) ;
#162 = CALENDAR_DATE ( 2021, 6, 10 ) ;
#163 = MANIFOLD_SOLID_BREP ( 'Corps-Déplacer/Copier1[2]', #115 ) ;
#164 = MANIFOLD_SOLID_BREP ( 'Corps-Déplacer/Copier1[1]', #23 ) ;
#165 = FACE_OUTER_BOUND ( 'NONE', #132, .T. ) ;
#166 = DIRECTION ( 'NONE',  ( -3.081487911019586123E-31, -1.000000000000000000, -8.673617379884060124E-17 ) ) ;
#167 = CC_DESIGN_DATE_AND_TIME_ASSIGNMENT ( #34, #157, ( #168 ) ) ;
#168 = SECURITY_CLASSIFICATION ( '', '', #36 ) ;
#169 = DIRECTION ( 'NONE',  ( -4.275831445896958607E-31, -1.000000000000000000, -1.224646799147353207E-16 ) ) ;
#170 = DIRECTION ( 'NONE',  ( 3.081487911019586123E-31, 1.000000000000000000, 8.673617379884060124E-17 ) ) ;
#171 = CARTESIAN_POINT ( 'NONE',  ( 9.077851480992146724E-14, 2.499999999999992895, 26.00000000000000000 ) ) ;
#172 = PERSON_AND_ORGANIZATION ( #179, #185 ) ;
#173 = VERTEX_POINT ( 'NONE', #171 ) ;
#174 = APPLICATION_PROTOCOL_DEFINITION ( 'international standard', 'config_control_design', 1994, #8 ) ;
#175 = PERSON_AND_ORGANIZATION ( #179, #185 ) ;
#176 = APPROVAL_PERSON_ORGANIZATION ( #201, #68, #144 ) ;
#177 = CC_DESIGN_PERSON_AND_ORGANIZATION_ASSIGNMENT ( #175, #61, ( #111 ) ) ;
#178 = EDGE_LOOP ( 'NONE', ( #6 ) ) ;
#179 = PERSON ( 'UNSPECIFIED', 'UNSPECIFIED', 'UNSPECIFIED', ('UNSPECIFIED'), ('UNSPECIFIED'), ('UNSPECIFIED') ) ;
#180 = ADVANCED_FACE ( 'NONE', ( #103 ), #134, .T. ) ;
#181 = AXIS2_PLACEMENT_3D ( 'NONE', #197, #139, #71 ) ;
#182 = DIRECTION ( 'NONE',  ( 0.0000000000000000000, 1.000000000000000000, 0.0000000000000000000 ) ) ;
#183 = CARTESIAN_POINT ( 'NONE',  ( 2.164718430082742680E-13, -7.592810154713590230E-15, 62.00000000000000000 ) ) ;
#184 = ORIENTED_EDGE ( 'NONE', *, *, #107, .T. ) ;
#185 = ORGANIZATION ( 'UNSPECIFIED', 'UNSPECIFIED', '' ) ;
#186 = FACE_OUTER_BOUND ( 'NONE', #133, .T. ) ;
#187 = ORIENTED_EDGE ( 'NONE', *, *, #107, .F. ) ;
#188 = APPROVAL_STATUS ( 'not_yet_approved' ) ;
#189 = CC_DESIGN_APPROVAL ( #151, ( #168 ) ) ;
#190 =( NAMED_UNIT ( * ) PLANE_ANGLE_UNIT ( ) SI_UNIT ( $, .RADIAN. ) );
#191 =( LENGTH_UNIT ( ) NAMED_UNIT ( * ) SI_UNIT ( .MILLI., .METRE. ) );
#192 = ORIENTED_EDGE ( 'NONE', *, *, #21, .F. ) ;
#193 = APPROVAL_ROLE ( '' ) ;
#194 = DIRECTION ( 'NONE',  ( -3.491481338843133355E-15, 1.224646799147353207E-16, -1.000000000000000000 ) ) ;
#195 = AXIS2_PLACEMENT_3D ( 'NONE', #45, #81, #116 ) ;
#196 = ADVANCED_FACE ( 'NONE', ( #84 ), #152, .F. ) ;
#197 = CARTESIAN_POINT ( 'NONE',  ( 9.077851480992146724E-14, -3.184081677783118191E-15, 26.00000000000000000 ) ) ;
#198 = DIRECTION ( 'NONE',  ( 4.275831445896958607E-31, 1.000000000000000000, 1.224646799147353207E-16 ) ) ;
#199 = DIRECTION ( 'NONE',  ( 3.491481338843133355E-15, -1.224646799147353207E-16, 1.000000000000000000 ) ) ;
#200 = AXIS2_PLACEMENT_3D ( 'NONE', #92, #124, #35 ) ;
#201 = PERSON_AND_ORGANIZATION ( #179, #185 ) ;
#202 = PERSON_AND_ORGANIZATION_ROLE ( 'creator' ) ;
#203 = PERSON_AND_ORGANIZATION ( #179, #185 ) ;
ENDSEC;
END-ISO-10303-21;
