ISO-10303-21;
HEADER;
FILE_DESCRIPTION (( 'STEP AP203' ),
    '1' );
FILE_NAME ('55667.step',
    '2021-10-06T11:20:41',
    ( '' ),
    ( '' ),
    'SwSTEP 2.0',
    'SolidWorks 2019',
    '' );
FILE_SCHEMA (( 'CONFIG_CONTROL_DESIGN' ));
ENDSEC;

DATA;
#1 = PERSON_AND_ORGANIZATION_ROLE ( 'creator' ) ;
#2 = PERSON_AND_ORGANIZATION ( #49, #3 ) ;
#3 = ORGANIZATION ( 'UNSPECIFIED', 'UNSPECIFIED', '' ) ;
#4 = DATE_AND_TIME ( #132, #57 ) ;
#5 = CALENDAR_DATE ( 2021, 6, 10 ) ;
#6 = CLOSED_SHELL ( 'NONE', ( #87, #153, #91, #125 ) ) ;
#7 = PRODUCT_DEFINITION_FORMATION_WITH_SPECIFIED_SOURCE ( 'ANY', '', #84, .NOT_KNOWN. ) ;
#8 = EDGE_LOOP ( 'NONE', ( #161 ) ) ;
#9 = FACE_OUTER_BOUND ( 'NONE', #73, .T. ) ;
#10 = CYLINDRICAL_SURFACE ( 'NONE', #27, 2.249999999999998668 ) ;
#11 = APPLICATION_CONTEXT ( 'configuration controlled 3d designs of mechanical parts and assemblies' ) ;
#12 = CARTESIAN_POINT ( 'NONE',  ( 8.379555213223520053E-14, -2.939152317953647894E-15, 24.00000000000000000 ) ) ;
#13 = AXIS2_PLACEMENT_3D ( 'NONE', #30, #59, #136 ) ;
#14 = CARTESIAN_POINT ( 'NONE',  ( 0.0000000000000000000, 0.0000000000000000000, 0.0000000000000000000 ) ) ;
#15 = PRODUCT_DEFINITION_SHAPE ( 'NONE', 'NONE',  #79 ) ;
#16 =( LENGTH_UNIT ( ) NAMED_UNIT ( * ) SI_UNIT ( .MILLI., .METRE. ) );
#17 = EDGE_CURVE ( 'NONE', #96, #96, #85, .T. ) ;
#18 = CARTESIAN_POINT ( 'NONE',  ( 3.663235094867633910E-15, 2.249999999999993339, 1.049192230848757568 ) ) ;
#19 = PERSON_AND_ORGANIZATION_ROLE ( 'creator' ) ;
#20 = CARTESIAN_POINT ( 'NONE',  ( 2.007601769834801742E-13, 2.249999999999993339, 57.50000000000000000 ) ) ;
#21 = PERSON_AND_ORGANIZATION_ROLE ( 'classification_officer' ) ;
#22 = DATE_TIME_ROLE ( 'classification_date' ) ;
#23 = MANIFOLD_SOLID_BREP ( 'Corps-Déplacer/Copier1[2]', #53 ) ;
#24 = PERSON_AND_ORGANIZATION ( #49, #3 ) ;
#25 = EDGE_LOOP ( 'NONE', ( #115 ) ) ;
#26 = FACE_BOUND ( 'NONE', #122, .T. ) ;
#27 = AXIS2_PLACEMENT_3D ( 'NONE', #14, #46, #80 ) ;
#28 = EDGE_LOOP ( 'NONE', ( #76 ) ) ;
#29 = FACE_OUTER_BOUND ( 'NONE', #8, .T. ) ;
#30 = CARTESIAN_POINT ( 'NONE',  ( 3.663235094867633121E-15, -1.284889907199201594E-16, 1.049192230848757346 ) ) ;
#31 = LOCAL_TIME ( 13, 20, 41.00000000000000000, #114 ) ;
#32 = CARTESIAN_POINT ( 'NONE',  ( 8.379555213223520053E-14, 1.687229755494582693E-32, 24.00000000000000000 ) ) ;
#33 = CC_DESIGN_PERSON_AND_ORGANIZATION_ASSIGNMENT ( #203, #68, ( #84 ) ) ;
#34 = CYLINDRICAL_SURFACE ( 'NONE', #148, 2.249999999999995115 ) ;
#35 = CC_DESIGN_PERSON_AND_ORGANIZATION_ASSIGNMENT ( #39, #21, ( #191 ) ) ;
#36 = DIRECTION ( 'NONE',  ( -3.491481338843133355E-15, 1.224646799147353207E-16, -1.000000000000000000 ) ) ;
#37 =( NAMED_UNIT ( * ) PLANE_ANGLE_UNIT ( ) SI_UNIT ( $, .RADIAN. ) );
#38 = CIRCLE ( 'NONE', #77, 2.249999999999996447 ) ;
#39 = PERSON_AND_ORGANIZATION ( #49, #3 ) ;
#40 = PERSON_AND_ORGANIZATION ( #49, #3 ) ;
#41 = EDGE_LOOP ( 'NONE', ( #47 ) ) ;
#42 = ORIENTED_EDGE ( 'NONE', *, *, #43, .T. ) ;
#43 = EDGE_CURVE ( 'NONE', #67, #67, #162, .T. ) ;
#44 = CIRCLE ( 'NONE', #101, 1.750000000000000444 ) ;
#45 = DIRECTION ( 'NONE',  ( -3.491481338843133355E-15, 1.224646799147353207E-16, -1.000000000000000000 ) ) ;
#46 = DIRECTION ( 'NONE',  ( -3.491481338843133355E-15, 1.224646799147353207E-16, -1.000000000000000000 ) ) ;
#47 = ORIENTED_EDGE ( 'NONE', *, *, #17, .T. ) ;
#48 = PRODUCT_RELATED_PRODUCT_CATEGORY ( 'detail', '', ( #84 ) ) ;
#49 = PERSON ( 'UNSPECIFIED', 'UNSPECIFIED', 'UNSPECIFIED', ('UNSPECIFIED'), ('UNSPECIFIED'), ('UNSPECIFIED') ) ;
#50 = DATE_AND_TIME ( #95, #184 ) ;
#51 = DATE_AND_TIME ( #186, #31 ) ;
#52 =( NAMED_UNIT ( * ) SI_UNIT ( $, .STERADIAN. ) SOLID_ANGLE_UNIT ( ) );
#53 = CLOSED_SHELL ( 'NONE', ( #173, #193, #140 ) ) ;
#54 = DIRECTION ( 'NONE',  ( 1.000000000000000000, 0.0000000000000000000, 0.0000000000000000000 ) ) ;
#55 = EDGE_CURVE ( 'NONE', #129, #129, #113, .T. ) ;
#56 = CONICAL_SURFACE ( 'NONE', #188, 1.750000000000000444, 0.7853981633974476129 ) ;
#57 = LOCAL_TIME ( 13, 20, 41.00000000000000000, #100 ) ;
#58 = FACE_OUTER_BOUND ( 'NONE', #41, .T. ) ;
#59 = DIRECTION ( 'NONE',  ( 3.491481338843133355E-15, -1.224646799147353207E-16, 1.000000000000000000 ) ) ;
#60 = DIRECTION ( 'NONE',  ( -4.275831445896958607E-31, -1.000000000000000000, -1.224646799147353207E-16 ) ) ;
#61 = CONICAL_SURFACE ( 'NONE', #13, 2.249999999999993339, 1.134464013796309123 ) ;
#62 = DIRECTION ( 'NONE',  ( 3.491481338843133355E-15, -1.224646799147353207E-16, 1.000000000000000000 ) ) ;
#63 = FACE_OUTER_BOUND ( 'NONE', #196, .T. ) ;
#64 = VERTEX_POINT ( 'NONE', #187 ) ;
#65 = EDGE_CURVE ( 'NONE', #64, #64, #38, .T. ) ;
#66 = VERTEX_POINT ( 'NONE', #151 ) ;
#67 = VERTEX_POINT ( 'NONE', #18 ) ;
#68 = PERSON_AND_ORGANIZATION_ROLE ( 'design_owner' ) ;
#69 = AXIS2_PLACEMENT_3D ( 'NONE', #78, #105, #166 ) ;
#70 = CC_DESIGN_APPROVAL ( #150, ( #191 ) ) ;
#71 = ORIENTED_EDGE ( 'NONE', *, *, #55, .T. ) ;
#72 = APPROVAL_STATUS ( 'not_yet_approved' ) ;
#73 = EDGE_LOOP ( 'NONE', ( #71 ) ) ;
#74 = DIRECTION ( 'NONE',  ( 0.0000000000000000000, 1.000000000000000000, 0.0000000000000000000 ) ) ;
#75 = EDGE_LOOP ( 'NONE', ( #135 ) ) ;
#76 = ORIENTED_EDGE ( 'NONE', *, *, #65, .T. ) ;
#77 = AXIS2_PLACEMENT_3D ( 'NONE', #12, #145, #133 ) ;
#78 = CARTESIAN_POINT ( 'NONE',  ( 2.025059176529017346E-13, 1.312289809829115007E-32, 58.00000000000000000 ) ) ;
#79 = PRODUCT_DEFINITION ( 'UNKNOWN', '', #7, #104 ) ;
#80 = DIRECTION ( 'NONE',  ( 4.275831445896958607E-31, 1.000000000000000000, 1.224646799147352961E-16 ) ) ;
#81 = CC_DESIGN_SECURITY_CLASSIFICATION ( #191, ( #7 ) ) ;
#82 = SHAPE_DEFINITION_REPRESENTATION ( #15, #192 ) ;
#83 = APPROVAL_ROLE ( '' ) ;
#84 = PRODUCT ( '55667', '55667', '', ( #138 ) ) ;
#85 = CIRCLE ( 'NONE', #143, 2.250000000000000444 ) ;
#86 = FACE_OUTER_BOUND ( 'NONE', #123, .T. ) ;
#87 = ADVANCED_FACE ( 'NONE', ( #9 ), #163, .F. ) ;
#88 = AXIS2_PLACEMENT_3D ( 'NONE', #177, #89, #197 ) ;
#89 = DIRECTION ( 'NONE',  ( -3.491481338843133355E-15, 1.224646799147353207E-16, -1.000000000000000000 ) ) ;
#90 = ORIENTED_EDGE ( 'NONE', *, *, #43, .F. ) ;
#91 = ADVANCED_FACE ( 'NONE', ( #119, #26 ), #56, .T. ) ;
#92 = CARTESIAN_POINT ( 'NONE',  ( 8.379555213223520053E-14, -2.939152317953647894E-15, 24.00000000000000000 ) ) ;
#93 = AXIS2_PLACEMENT_3D ( 'NONE', #126, #171, #54 ) ;
#94 = ORIENTED_EDGE ( 'NONE', *, *, #158, .T. ) ;
#95 = CALENDAR_DATE ( 2021, 6, 10 ) ;
#96 = VERTEX_POINT ( 'NONE', #20 ) ;
#97 = COORDINATED_UNIVERSAL_TIME_OFFSET ( 1, 0, .AHEAD. ) ;
#98 = APPROVAL_PERSON_ORGANIZATION ( #168, #134, #170 ) ;
#99 = DIRECTION ( 'NONE',  ( 4.275831445896958607E-31, 1.000000000000000000, 1.224646799147353207E-16 ) ) ;
#100 = COORDINATED_UNIVERSAL_TIME_OFFSET ( 1, 0, .AHEAD. ) ;
#101 = AXIS2_PLACEMENT_3D ( 'NONE', #106, #147, #194 ) ;
#102 = DIRECTION ( 'NONE',  ( 0.0000000000000000000, 1.000000000000000000, 0.0000000000000000000 ) ) ;
#103 = LOCAL_TIME ( 13, 20, 41.00000000000000000, #160 ) ;
#104 = DESIGN_CONTEXT ( 'detailed design', #11, 'design' ) ;
#105 = DIRECTION ( 'NONE',  ( -3.491481338843133355E-15, 1.224646799147353207E-16, -1.000000000000000000 ) ) ;
#106 = CARTESIAN_POINT ( 'NONE',  ( 2.025059176529017346E-13, -7.102951435054648059E-15, 58.00000000000000000 ) ) ;
#107 = EDGE_LOOP ( 'NONE', ( #164 ) ) ;
#108 = LOCAL_TIME ( 13, 20, 41.00000000000000000, #112 ) ;
#109 = CALENDAR_DATE ( 2021, 6, 10 ) ;
#110 = APPROVAL_DATE_TIME ( #50, #134 ) ;
#111 = CC_DESIGN_DATE_AND_TIME_ASSIGNMENT ( #200, #124, ( #79 ) ) ;
#112 = COORDINATED_UNIVERSAL_TIME_OFFSET ( 1, 0, .AHEAD. ) ;
#113 = CIRCLE ( 'NONE', #121, 2.249999999999996447 ) ;
#114 = COORDINATED_UNIVERSAL_TIME_OFFSET ( 1, 0, .AHEAD. ) ;
#115 = ORIENTED_EDGE ( 'NONE', *, *, #158, .F. ) ;
#116 = APPROVAL_PERSON_ORGANIZATION ( #2, #120, #189 ) ;
#117 = PLANE ( 'NONE',  #69 ) ;
#118 = DIRECTION ( 'NONE',  ( 0.0000000000000000000, 1.000000000000000000, 0.0000000000000000000 ) ) ;
#119 = FACE_OUTER_BOUND ( 'NONE', #107, .T. ) ;
#120 = APPROVAL ( #127, 'UNSPECIFIED' ) ;
#121 = AXIS2_PLACEMENT_3D ( 'NONE', #92, #167, #102 ) ;
#122 = EDGE_LOOP ( 'NONE', ( #94 ) ) ;
#123 = EDGE_LOOP ( 'NONE', ( #42 ) ) ;
#124 = DATE_TIME_ROLE ( 'creation_date' ) ;
#125 = ADVANCED_FACE ( 'NONE', ( #149 ), #117, .F. ) ;
#126 = CARTESIAN_POINT ( 'NONE',  ( 0.0000000000000000000, 0.0000000000000000000, 0.0000000000000000000 ) ) ;
#127 = APPROVAL_STATUS ( 'not_yet_approved' ) ;
#128 = CARTESIAN_POINT ( 'NONE',  ( 8.379555213223520053E-14, 2.249999999999993339, 24.00000000000000000 ) ) ;
#129 = VERTEX_POINT ( 'NONE', #128 ) ;
#130 = DATE_AND_TIME ( #5, #103 ) ;
#131 = CC_DESIGN_PERSON_AND_ORGANIZATION_ASSIGNMENT ( #40, #176, ( #7 ) ) ;
#132 = CALENDAR_DATE ( 2021, 6, 10 ) ;
#133 = DIRECTION ( 'NONE',  ( 0.0000000000000000000, 1.000000000000000000, 0.0000000000000000000 ) ) ;
#134 = APPROVAL ( #185, 'UNSPECIFIED' ) ;
#135 = ORIENTED_EDGE ( 'NONE', *, *, #55, .F. ) ;
#136 = DIRECTION ( 'NONE',  ( -3.423875456688429463E-31, -1.000000000000000000, -9.637352644315623593E-17 ) ) ;
#137 = APPROVAL_DATE_TIME ( #51, #120 ) ;
#138 = MECHANICAL_CONTEXT ( 'NONE', #174, 'mechanical' ) ;
#139 = CC_DESIGN_APPROVAL ( #120, ( #79 ) ) ;
#140 = ADVANCED_FACE ( 'NONE', ( #29 ), #199, .T. ) ;
#141 = CC_DESIGN_APPROVAL ( #134, ( #7 ) ) ;
#142 = DIRECTION ( 'NONE',  ( 3.491481338843133355E-15, -1.224646799147353207E-16, 1.000000000000000000 ) ) ;
#143 = AXIS2_PLACEMENT_3D ( 'NONE', #195, #182, #74 ) ;
#144 = APPROVAL_PERSON_ORGANIZATION ( #24, #150, #83 ) ;
#145 = DIRECTION ( 'NONE',  ( -3.491481338843133355E-15, 1.224646799147353207E-16, -1.000000000000000000 ) ) ;
#146 = FACE_OUTER_BOUND ( 'NONE', #75, .T. ) ;
#147 = DIRECTION ( 'NONE',  ( -3.491481338843133355E-15, 1.224646799147353207E-16, -1.000000000000000000 ) ) ;
#148 = AXIS2_PLACEMENT_3D ( 'NONE', #183, #36, #99 ) ;
#149 = FACE_OUTER_BOUND ( 'NONE', #25, .T. ) ;
#150 = APPROVAL ( #72, 'UNSPECIFIED' ) ;
#151 = CARTESIAN_POINT ( 'NONE',  ( 2.025059176529017346E-13, 1.749999999999993339, 58.00000000000000000 ) ) ;
#152 = MANIFOLD_SOLID_BREP ( 'Corps-Déplacer/Copier1[1]', #6 ) ;
#153 = ADVANCED_FACE ( 'NONE', ( #146, #58 ), #10, .T. ) ;
#154 = PERSON_AND_ORGANIZATION ( #49, #3 ) ;
#155 = UNCERTAINTY_MEASURE_WITH_UNIT (LENGTH_MEASURE( 1.000000000000000082E-05 ), #16, 'distance_accuracy_value', 'NONE');
#156 = APPLICATION_PROTOCOL_DEFINITION ( 'international standard', 'config_control_design', 1994, #174 ) ;
#157 = FACE_OUTER_BOUND ( 'NONE', #28, .T. ) ;
#158 = EDGE_CURVE ( 'NONE', #66, #66, #44, .T. ) ;
#159 = APPROVAL_DATE_TIME ( #4, #150 ) ;
#160 = COORDINATED_UNIVERSAL_TIME_OFFSET ( 1, 0, .AHEAD. ) ;
#161 = ORIENTED_EDGE ( 'NONE', *, *, #65, .F. ) ;
#162 = CIRCLE ( 'NONE', #88, 2.249999999999993339 ) ;
#163 = PLANE ( 'NONE',  #202 ) ;
#164 = ORIENTED_EDGE ( 'NONE', *, *, #17, .F. ) ;
#165 = CC_DESIGN_PERSON_AND_ORGANIZATION_ASSIGNMENT ( #154, #19, ( #7 ) ) ;
#166 = DIRECTION ( 'NONE',  ( 4.275831445896958607E-31, 1.000000000000000000, 1.224646799147353207E-16 ) ) ;
#167 = DIRECTION ( 'NONE',  ( -3.491481338843133355E-15, 1.224646799147353207E-16, -1.000000000000000000 ) ) ;
#168 = PERSON_AND_ORGANIZATION ( #49, #3 ) ;
#169 = CC_DESIGN_DATE_AND_TIME_ASSIGNMENT ( #130, #22, ( #191 ) ) ;
#170 = APPROVAL_ROLE ( '' ) ;
#171 = DIRECTION ( 'NONE',  ( 0.0000000000000000000, 0.0000000000000000000, 1.000000000000000000 ) ) ;
#172 = PERSON_AND_ORGANIZATION ( #49, #3 ) ;
#173 = ADVANCED_FACE ( 'NONE', ( #86 ), #61, .T. ) ;
#174 = APPLICATION_CONTEXT ( 'configuration controlled 3d designs of mechanical parts and assemblies' ) ;
#175 = SECURITY_CLASSIFICATION_LEVEL ( 'unclassified' ) ;
#176 = PERSON_AND_ORGANIZATION_ROLE ( 'design_supplier' ) ;
#177 = CARTESIAN_POINT ( 'NONE',  ( 3.663235094867633121E-15, -1.284889907199201594E-16, 1.049192230848757346 ) ) ;
#178 = DIRECTION ( 'NONE',  ( -4.275831445896958607E-31, -1.000000000000000000, -1.224646799147353207E-16 ) ) ;
#179 = CARTESIAN_POINT ( 'NONE',  ( 2.025059176529017346E-13, -7.102951435054648059E-15, 58.00000000000000000 ) ) ;
#180 = AXIS2_PLACEMENT_3D ( 'NONE', #181, #142, #178 ) ;
#181 = CARTESIAN_POINT ( 'NONE',  ( 8.379555213223520053E-14, 1.687229755494582693E-32, 24.00000000000000000 ) ) ;
#182 = DIRECTION ( 'NONE',  ( -3.491481338843133355E-15, 1.224646799147353207E-16, -1.000000000000000000 ) ) ;
#183 = CARTESIAN_POINT ( 'NONE',  ( 0.0000000000000000000, 0.0000000000000000000, 0.0000000000000000000 ) ) ;
#184 = LOCAL_TIME ( 13, 20, 41.00000000000000000, #97 ) ;
#185 = APPROVAL_STATUS ( 'not_yet_approved' ) ;
#186 = CALENDAR_DATE ( 2021, 6, 10 ) ;
#187 = CARTESIAN_POINT ( 'NONE',  ( 8.379555213223520053E-14, 2.249999999999993339, 24.00000000000000000 ) ) ;
#188 = AXIS2_PLACEMENT_3D ( 'NONE', #179, #45, #118 ) ;
#189 = APPROVAL_ROLE ( '' ) ;
#190 = CC_DESIGN_PERSON_AND_ORGANIZATION_ASSIGNMENT ( #172, #1, ( #79 ) ) ;
#191 = SECURITY_CLASSIFICATION ( '', '', #175 ) ;
#192 = ADVANCED_BREP_SHAPE_REPRESENTATION ( '55667', ( #152, #23, #93 ), #198 ) ;
#193 = ADVANCED_FACE ( 'NONE', ( #63, #157 ), #34, .T. ) ;
#194 = DIRECTION ( 'NONE',  ( 0.0000000000000000000, 1.000000000000000000, 0.0000000000000000000 ) ) ;
#195 = CARTESIAN_POINT ( 'NONE',  ( 2.007601769834801742E-13, -7.041719095097280485E-15, 57.50000000000000000 ) ) ;
#196 = EDGE_LOOP ( 'NONE', ( #90 ) ) ;
#197 = DIRECTION ( 'NONE',  ( 3.423875456688429463E-31, 1.000000000000000000, 9.637352644315623593E-17 ) ) ;
#198 =( GEOMETRIC_REPRESENTATION_CONTEXT ( 3 ) GLOBAL_UNCERTAINTY_ASSIGNED_CONTEXT ( ( #155 ) ) GLOBAL_UNIT_ASSIGNED_CONTEXT ( ( #16, #37, #52 ) ) REPRESENTATION_CONTEXT ( 'NONE', 'WORKASPACE' ) );
#199 = PLANE ( 'NONE',  #180 ) ;
#200 = DATE_AND_TIME ( #109, #108 ) ;
#201 = APPLICATION_PROTOCOL_DEFINITION ( 'international standard', 'config_control_design', 1994, #11 ) ;
#202 = AXIS2_PLACEMENT_3D ( 'NONE', #32, #62, #60 ) ;
#203 = PERSON_AND_ORGANIZATION ( #49, #3 ) ;
ENDSEC;
END-ISO-10303-21;
