ISO-10303-21;
HEADER;
FILE_DESCRIPTION (( 'STEP AP203' ),
    '1' );
FILE_NAME ('55665.step',
    '2021-10-06T11:20:38',
    ( '' ),
    ( '' ),
    'SwSTEP 2.0',
    'SolidWorks 2019',
    '' );
FILE_SCHEMA (( 'CONFIG_CONTROL_DESIGN' ));
ENDSEC;

DATA;
#1 = COORDINATED_UNIVERSAL_TIME_OFFSET ( 1, 0, .AHEAD. ) ;
#2 = PERSON_AND_ORGANIZATION_ROLE ( 'design_supplier' ) ;
#3 = APPROVAL_ROLE ( '' ) ;
#4 = AXIS2_PLACEMENT_3D ( 'NONE', #48, #191, #106 ) ;
#5 = CC_DESIGN_SECURITY_CLASSIFICATION ( #68, ( #100 ) ) ;
#6 = ADVANCED_FACE ( 'NONE', ( #85, #133 ), #195, .T. ) ;
#7 = ADVANCED_FACE ( 'NONE', ( #196 ), #18, .F. ) ;
#8 = CC_DESIGN_PERSON_AND_ORGANIZATION_ASSIGNMENT ( #112, #134, ( #68 ) ) ;
#9 = DIRECTION ( 'NONE',  ( -3.491481338843133355E-15, 1.224646799147353207E-16, -1.000000000000000000 ) ) ;
#10 = APPROVAL_PERSON_ORGANIZATION ( #172, #63, #3 ) ;
#11 = DIRECTION ( 'NONE',  ( 0.0000000000000000000, 0.0000000000000000000, 1.000000000000000000 ) ) ;
#12 = DIRECTION ( 'NONE',  ( -3.491481338843133355E-15, 1.224646799147353207E-16, -1.000000000000000000 ) ) ;
#13 = VERTEX_POINT ( 'NONE', #160 ) ;
#14 = UNCERTAINTY_MEASURE_WITH_UNIT (LENGTH_MEASURE( 1.000000000000000082E-05 ), #162, 'distance_accuracy_value', 'NONE');
#15 = CARTESIAN_POINT ( 'NONE',  ( 0.0000000000000000000, 0.0000000000000000000, 0.0000000000000000000 ) ) ;
#16 = DIRECTION ( 'NONE',  ( 3.491481338843133355E-15, -1.224646799147353207E-16, 1.000000000000000000 ) ) ;
#17 = AXIS2_PLACEMENT_3D ( 'NONE', #156, #12, #202 ) ;
#18 = PLANE ( 'NONE',  #115 ) ;
#19 = EDGE_LOOP ( 'NONE', ( #125 ) ) ;
#20 = VERTEX_POINT ( 'NONE', #130 ) ;
#21 = ADVANCED_FACE ( 'NONE', ( #177 ), #151, .T. ) ;
#22 = AXIS2_PLACEMENT_3D ( 'NONE', #197, #186, #194 ) ;
#23 = PERSON_AND_ORGANIZATION ( #55, #39 ) ;
#24 = VERTEX_POINT ( 'NONE', #163 ) ;
#25 = MECHANICAL_CONTEXT ( 'NONE', #46, 'mechanical' ) ;
#26 = EDGE_LOOP ( 'NONE', ( #30 ) ) ;
#27 = LOCAL_TIME ( 13, 20, 38.00000000000000000, #1 ) ;
#28 = CARTESIAN_POINT ( 'NONE',  ( 7.681258945454893382E-14, 1.574747771794943920E-32, 22.00000000000000000 ) ) ;
#29 = ADVANCED_FACE ( 'NONE', ( #87 ), #154, .F. ) ;
#30 = ORIENTED_EDGE ( 'NONE', *, *, #89, .F. ) ;
#31 = DIRECTION ( 'NONE',  ( -3.668437989309031286E-31, -1.000000000000000000, -1.032573497605245306E-16 ) ) ;
#32 = ORIENTED_EDGE ( 'NONE', *, *, #36, .T. ) ;
#33 = EDGE_CURVE ( 'NONE', #58, #58, #138, .T. ) ;
#34 = AXIS2_PLACEMENT_3D ( 'NONE', #142, #53, #40 ) ;
#35 = DATE_AND_TIME ( #108, #152 ) ;
#36 = EDGE_CURVE ( 'NONE', #13, #13, #114, .T. ) ;
#37 = PERSON_AND_ORGANIZATION ( #55, #39 ) ;
#38 = AXIS2_PLACEMENT_3D ( 'NONE', #157, #170, #31 ) ;
#39 = ORGANIZATION ( 'UNSPECIFIED', 'UNSPECIFIED', '' ) ;
#40 = DIRECTION ( 'NONE',  ( 0.0000000000000000000, 1.000000000000000000, 0.0000000000000000000 ) ) ;
#41 = LOCAL_TIME ( 13, 20, 38.00000000000000000, #84 ) ;
#42 = DIRECTION ( 'NONE',  ( -3.491481338843133355E-15, 1.224646799147353207E-16, -1.000000000000000000 ) ) ;
#43 = FACE_OUTER_BOUND ( 'NONE', #78, .T. ) ;
#44 = FACE_OUTER_BOUND ( 'NONE', #179, .T. ) ;
#45 = CARTESIAN_POINT ( 'NONE',  ( 0.0000000000000000000, 0.0000000000000000000, 0.0000000000000000000 ) ) ;
#46 = APPLICATION_CONTEXT ( 'configuration controlled 3d designs of mechanical parts and assemblies' ) ;
#47 = COORDINATED_UNIVERSAL_TIME_OFFSET ( 1, 0, .AHEAD. ) ;
#48 = CARTESIAN_POINT ( 'NONE',  ( 1.902857329669507616E-13, -6.674325055353075041E-15, 54.50000000000000000 ) ) ;
#49 = ADVANCED_FACE ( 'NONE', ( #91 ), #97, .T. ) ;
#50 = DIRECTION ( 'NONE',  ( 3.491481338843133355E-15, -1.224646799147353207E-16, 1.000000000000000000 ) ) ;
#51 = CC_DESIGN_APPROVAL ( #61, ( #68 ) ) ;
#52 = APPROVAL_DATE_TIME ( #136, #61 ) ;
#53 = DIRECTION ( 'NONE',  ( -3.491481338843133355E-15, 1.224646799147353207E-16, -1.000000000000000000 ) ) ;
#54 = CC_DESIGN_PERSON_AND_ORGANIZATION_ASSIGNMENT ( #153, #2, ( #100 ) ) ;
#55 = PERSON ( 'UNSPECIFIED', 'UNSPECIFIED', 'UNSPECIFIED', ('UNSPECIFIED'), ('UNSPECIFIED'), ('UNSPECIFIED') ) ;
#56 = EDGE_CURVE ( 'NONE', #20, #20, #128, .T. ) ;
#57 = DIRECTION ( 'NONE',  ( 0.0000000000000000000, 1.000000000000000000, 0.0000000000000000000 ) ) ;
#58 = VERTEX_POINT ( 'NONE', #119 ) ;
#59 = CALENDAR_DATE ( 2021, 6, 10 ) ;
#60 = AXIS2_PLACEMENT_3D ( 'NONE', #45, #74, #198 ) ;
#61 = APPROVAL ( #66, 'UNSPECIFIED' ) ;
#62 = APPLICATION_CONTEXT ( 'configuration controlled 3d designs of mechanical parts and assemblies' ) ;
#63 = APPROVAL ( #80, 'UNSPECIFIED' ) ;
#64 = AXIS2_PLACEMENT_3D ( 'NONE', #15, #11, #101 ) ;
#65 = CALENDAR_DATE ( 2021, 6, 10 ) ;
#66 = APPROVAL_STATUS ( 'not_yet_approved' ) ;
#67 = VERTEX_POINT ( 'NONE', #120 ) ;
#68 = SECURITY_CLASSIFICATION ( '', '', #109 ) ;
#69 = DATE_TIME_ROLE ( 'classification_date' ) ;
#70 =( NAMED_UNIT ( * ) PLANE_ANGLE_UNIT ( ) SI_UNIT ( $, .RADIAN. ) );
#71 = CLOSED_SHELL ( 'NONE', ( #49, #107, #21 ) ) ;
#72 = CC_DESIGN_DATE_AND_TIME_ASSIGNMENT ( #176, #104, ( #92 ) ) ;
#73 = ORIENTED_EDGE ( 'NONE', *, *, #89, .T. ) ;
#74 = DIRECTION ( 'NONE',  ( -3.491481338843133355E-15, 1.224646799147353207E-16, -1.000000000000000000 ) ) ;
#75 = CC_DESIGN_PERSON_AND_ORGANIZATION_ASSIGNMENT ( #37, #143, ( #199 ) ) ;
#76 = CARTESIAN_POINT ( 'NONE',  ( 7.681258945454893382E-14, -2.694222958124176809E-15, 22.00000000000000000 ) ) ;
#77 = APPROVAL_DATE_TIME ( #35, #63 ) ;
#78 = EDGE_LOOP ( 'NONE', ( #111 ) ) ;
#79 = PERSON_AND_ORGANIZATION ( #55, #39 ) ;
#80 = APPROVAL_STATUS ( 'not_yet_approved' ) ;
#81 = APPROVAL_PERSON_ORGANIZATION ( #124, #123, #96 ) ;
#82 = PERSON_AND_ORGANIZATION_ROLE ( 'creator' ) ;
#83 = CC_DESIGN_DATE_AND_TIME_ASSIGNMENT ( #193, #69, ( #68 ) ) ;
#84 = COORDINATED_UNIVERSAL_TIME_OFFSET ( 1, 0, .AHEAD. ) ;
#85 = FACE_OUTER_BOUND ( 'NONE', #145, .T. ) ;
#86 =( GEOMETRIC_REPRESENTATION_CONTEXT ( 3 ) GLOBAL_UNCERTAINTY_ASSIGNED_CONTEXT ( ( #14 ) ) GLOBAL_UNIT_ASSIGNED_CONTEXT ( ( #162, #70, #137 ) ) REPRESENTATION_CONTEXT ( 'NONE', 'WORKASPACE' ) );
#87 = FACE_OUTER_BOUND ( 'NONE', #26, .T. ) ;
#88 = CARTESIAN_POINT ( 'NONE',  ( 0.0000000000000000000, 0.0000000000000000000, 0.0000000000000000000 ) ) ;
#89 = EDGE_CURVE ( 'NONE', #24, #24, #200, .T. ) ;
#90 = CYLINDRICAL_SURFACE ( 'NONE', #60, 2.099999999999995204 ) ;
#91 = FACE_OUTER_BOUND ( 'NONE', #144, .T. ) ;
#92 = PRODUCT_DEFINITION ( 'UNKNOWN', '', #100, #140 ) ;
#93 = APPROVAL_PERSON_ORGANIZATION ( #103, #61, #148 ) ;
#94 = ADVANCED_BREP_SHAPE_REPRESENTATION ( '55665', ( #175, #164, #64 ), #86 ) ;
#95 = CARTESIAN_POINT ( 'NONE',  ( 7.681258945454893382E-14, 1.574747771794943920E-32, 22.00000000000000000 ) ) ;
#96 = APPROVAL_ROLE ( '' ) ;
#97 = CONICAL_SURFACE ( 'NONE', #38, 2.099999999999993872, 1.134464013796309123 ) ;
#98 = CC_DESIGN_PERSON_AND_ORGANIZATION_ASSIGNMENT ( #23, #113, ( #92 ) ) ;
#99 = COORDINATED_UNIVERSAL_TIME_OFFSET ( 1, 0, .AHEAD. ) ;
#100 = PRODUCT_DEFINITION_FORMATION_WITH_SPECIFIED_SOURCE ( 'ANY', '', #199, .NOT_KNOWN. ) ;
#101 = DIRECTION ( 'NONE',  ( 1.000000000000000000, 0.0000000000000000000, 0.0000000000000000000 ) ) ;
#102 = DIRECTION ( 'NONE',  ( -3.491481338843133355E-15, 1.224646799147353207E-16, -1.000000000000000000 ) ) ;
#103 = PERSON_AND_ORGANIZATION ( #55, #39 ) ;
#104 = DATE_TIME_ROLE ( 'creation_date' ) ;
#105 = APPROVAL_DATE_TIME ( #178, #123 ) ;
#106 = DIRECTION ( 'NONE',  ( 0.0000000000000000000, 1.000000000000000000, 0.0000000000000000000 ) ) ;
#107 = ADVANCED_FACE ( 'NONE', ( #43, #173 ), #90, .T. ) ;
#108 = CALENDAR_DATE ( 2021, 6, 10 ) ;
#109 = SECURITY_CLASSIFICATION_LEVEL ( 'unclassified' ) ;
#110 = EDGE_LOOP ( 'NONE', ( #174 ) ) ;
#111 = ORIENTED_EDGE ( 'NONE', *, *, #181, .F. ) ;
#112 = PERSON_AND_ORGANIZATION ( #55, #39 ) ;
#113 = PERSON_AND_ORGANIZATION_ROLE ( 'creator' ) ;
#114 = CIRCLE ( 'NONE', #161, 2.099999999999996536 ) ;
#115 = AXIS2_PLACEMENT_3D ( 'NONE', #95, #50, #150 ) ;
#116 = SHAPE_DEFINITION_REPRESENTATION ( #169, #94 ) ;
#117 = EDGE_LOOP ( 'NONE', ( #73 ) ) ;
#118 = CARTESIAN_POINT ( 'NONE',  ( 7.681258945454893382E-14, -2.694222958124176809E-15, 22.00000000000000000 ) ) ;
#119 = CARTESIAN_POINT ( 'NONE',  ( 1.902857329669507616E-13, 2.099999999999993872, 54.50000000000000000 ) ) ;
#120 = CARTESIAN_POINT ( 'NONE',  ( 3.419019421876459289E-15, 2.099999999999993872, 0.9792460821255073444 ) ) ;
#121 = ORIENTED_EDGE ( 'NONE', *, *, #33, .T. ) ;
#122 = DIRECTION ( 'NONE',  ( -3.491481338843133355E-15, 1.224646799147353207E-16, -1.000000000000000000 ) ) ;
#123 = APPROVAL ( #182, 'UNSPECIFIED' ) ;
#124 = PERSON_AND_ORGANIZATION ( #55, #39 ) ;
#125 = ORIENTED_EDGE ( 'NONE', *, *, #56, .T. ) ;
#126 = CC_DESIGN_APPROVAL ( #123, ( #92 ) ) ;
#127 = CLOSED_SHELL ( 'NONE', ( #7, #165, #6, #29 ) ) ;
#128 = CIRCLE ( 'NONE', #146, 2.099999999999996536 ) ;
#129 = APPLICATION_PROTOCOL_DEFINITION ( 'international standard', 'config_control_design', 1994, #46 ) ;
#130 = CARTESIAN_POINT ( 'NONE',  ( 7.681258945454893382E-14, 2.099999999999993872, 22.00000000000000000 ) ) ;
#131 = CC_DESIGN_PERSON_AND_ORGANIZATION_ASSIGNMENT ( #79, #82, ( #100 ) ) ;
#132 = EDGE_LOOP ( 'NONE', ( #32 ) ) ;
#133 = FACE_BOUND ( 'NONE', #117, .T. ) ;
#134 = PERSON_AND_ORGANIZATION_ROLE ( 'classification_officer' ) ;
#135 = DIRECTION ( 'NONE',  ( 4.275831445896958607E-31, 1.000000000000000000, 1.224646799147353207E-16 ) ) ;
#136 = DATE_AND_TIME ( #168, #41 ) ;
#137 =( NAMED_UNIT ( * ) SI_UNIT ( $, .STERADIAN. ) SOLID_ANGLE_UNIT ( ) );
#138 = CIRCLE ( 'NONE', #4, 2.100000000000000089 ) ;
#139 = PRODUCT_RELATED_PRODUCT_CATEGORY ( 'detail', '', ( #199 ) ) ;
#140 = DESIGN_CONTEXT ( 'detailed design', #62, 'design' ) ;
#141 = AXIS2_PLACEMENT_3D ( 'NONE', #88, #122, #135 ) ;
#142 = CARTESIAN_POINT ( 'NONE',  ( 1.920314736363723472E-13, -6.735557395310442615E-15, 55.00000000000000000 ) ) ;
#143 = PERSON_AND_ORGANIZATION_ROLE ( 'design_owner' ) ;
#144 = EDGE_LOOP ( 'NONE', ( #192 ) ) ;
#145 = EDGE_LOOP ( 'NONE', ( #185 ) ) ;
#146 = AXIS2_PLACEMENT_3D ( 'NONE', #76, #9, #190 ) ;
#147 = CIRCLE ( 'NONE', #180, 2.099999999999993872 ) ;
#148 = APPROVAL_ROLE ( '' ) ;
#149 = AXIS2_PLACEMENT_3D ( 'NONE', #28, #16, #166 ) ;
#150 = DIRECTION ( 'NONE',  ( -4.275831445896958607E-31, -1.000000000000000000, -1.224646799147353207E-16 ) ) ;
#151 = PLANE ( 'NONE',  #149 ) ;
#152 = LOCAL_TIME ( 13, 20, 38.00000000000000000, #99 ) ;
#153 = PERSON_AND_ORGANIZATION ( #55, #39 ) ;
#154 = PLANE ( 'NONE',  #17 ) ;
#155 = DIRECTION ( 'NONE',  ( 3.668437989309031286E-31, 1.000000000000000000, 1.032573497605245306E-16 ) ) ;
#156 = CARTESIAN_POINT ( 'NONE',  ( 1.920314736363723472E-13, 1.199807826129476507E-32, 55.00000000000000000 ) ) ;
#157 = CARTESIAN_POINT ( 'NONE',  ( 3.419019421876458500E-15, -1.199230580052588533E-16, 0.9792460821255071224 ) ) ;
#158 = LOCAL_TIME ( 13, 20, 38.00000000000000000, #47 ) ;
#159 = COORDINATED_UNIVERSAL_TIME_OFFSET ( 1, 0, .AHEAD. ) ;
#160 = CARTESIAN_POINT ( 'NONE',  ( 7.681258945454893382E-14, 2.099999999999993872, 22.00000000000000000 ) ) ;
#161 = AXIS2_PLACEMENT_3D ( 'NONE', #118, #102, #57 ) ;
#162 =( LENGTH_UNIT ( ) NAMED_UNIT ( * ) SI_UNIT ( .MILLI., .METRE. ) );
#163 = CARTESIAN_POINT ( 'NONE',  ( 1.920314736363723472E-13, 1.599999999999993872, 55.00000000000000000 ) ) ;
#164 = MANIFOLD_SOLID_BREP ( 'Corps-Déplacer/Copier1[2]', #71 ) ;
#165 = ADVANCED_FACE ( 'NONE', ( #188, #44 ), #167, .T. ) ;
#166 = DIRECTION ( 'NONE',  ( -4.275831445896958607E-31, -1.000000000000000000, -1.224646799147353207E-16 ) ) ;
#167 = CYLINDRICAL_SURFACE ( 'NONE', #141, 2.099999999999998757 ) ;
#168 = CALENDAR_DATE ( 2021, 6, 10 ) ;
#169 = PRODUCT_DEFINITION_SHAPE ( 'NONE', 'NONE',  #92 ) ;
#170 = DIRECTION ( 'NONE',  ( 3.491481338843133355E-15, -1.224646799147353207E-16, 1.000000000000000000 ) ) ;
#171 = ORIENTED_EDGE ( 'NONE', *, *, #56, .F. ) ;
#172 = PERSON_AND_ORGANIZATION ( #55, #39 ) ;
#173 = FACE_OUTER_BOUND ( 'NONE', #19, .T. ) ;
#174 = ORIENTED_EDGE ( 'NONE', *, *, #36, .F. ) ;
#175 = MANIFOLD_SOLID_BREP ( 'Corps-Déplacer/Copier1[1]', #127 ) ;
#176 = DATE_AND_TIME ( #59, #158 ) ;
#177 = FACE_OUTER_BOUND ( 'NONE', #187, .T. ) ;
#178 = DATE_AND_TIME ( #65, #27 ) ;
#179 = EDGE_LOOP ( 'NONE', ( #121 ) ) ;
#180 = AXIS2_PLACEMENT_3D ( 'NONE', #201, #42, #155 ) ;
#181 = EDGE_CURVE ( 'NONE', #67, #67, #147, .T. ) ;
#182 = APPROVAL_STATUS ( 'not_yet_approved' ) ;
#183 = CC_DESIGN_APPROVAL ( #63, ( #100 ) ) ;
#184 = CALENDAR_DATE ( 2021, 6, 10 ) ;
#185 = ORIENTED_EDGE ( 'NONE', *, *, #33, .F. ) ;
#186 = DIRECTION ( 'NONE',  ( -3.491481338843133355E-15, 1.224646799147353207E-16, -1.000000000000000000 ) ) ;
#187 = EDGE_LOOP ( 'NONE', ( #171 ) ) ;
#188 = FACE_OUTER_BOUND ( 'NONE', #110, .T. ) ;
#189 = LOCAL_TIME ( 13, 20, 38.00000000000000000, #159 ) ;
#190 = DIRECTION ( 'NONE',  ( 0.0000000000000000000, 1.000000000000000000, 0.0000000000000000000 ) ) ;
#191 = DIRECTION ( 'NONE',  ( -3.491481338843133355E-15, 1.224646799147353207E-16, -1.000000000000000000 ) ) ;
#192 = ORIENTED_EDGE ( 'NONE', *, *, #181, .T. ) ;
#193 = DATE_AND_TIME ( #184, #189 ) ;
#194 = DIRECTION ( 'NONE',  ( 0.0000000000000000000, 1.000000000000000000, 0.0000000000000000000 ) ) ;
#195 = CONICAL_SURFACE ( 'NONE', #22, 1.600000000000000533, 0.7853981633974476129 ) ;
#196 = FACE_OUTER_BOUND ( 'NONE', #132, .T. ) ;
#197 = CARTESIAN_POINT ( 'NONE',  ( 1.920314736363723472E-13, -6.735557395310442615E-15, 55.00000000000000000 ) ) ;
#198 = DIRECTION ( 'NONE',  ( 4.275831445896958607E-31, 1.000000000000000000, 1.224646799147352961E-16 ) ) ;
#199 = PRODUCT ( '55665', '55665', '', ( #25 ) ) ;
#200 = CIRCLE ( 'NONE', #34, 1.600000000000000533 ) ;
#201 = CARTESIAN_POINT ( 'NONE',  ( 3.419019421876458500E-15, -1.199230580052588533E-16, 0.9792460821255071224 ) ) ;
#202 = DIRECTION ( 'NONE',  ( 4.275831445896958607E-31, 1.000000000000000000, 1.224646799147353207E-16 ) ) ;
#203 = APPLICATION_PROTOCOL_DEFINITION ( 'international standard', 'config_control_design', 1994, #62 ) ;
ENDSEC;
END-ISO-10303-21;
