ISO-10303-21;
HEADER;
FILE_DESCRIPTION (( 'STEP AP203' ),
    '1' );
FILE_NAME ('55663.step',
    '2021-10-06T11:20:36',
    ( '' ),
    ( '' ),
    'SwSTEP 2.0',
    'SolidWorks 2019',
    '' );
FILE_SCHEMA (( 'CONFIG_CONTROL_DESIGN' ));
ENDSEC;

DATA;
#1 = AXIS2_PLACEMENT_3D ( 'NONE', #105, #109, #63 ) ;
#2 = COORDINATED_UNIVERSAL_TIME_OFFSET ( 1, 0, .AHEAD. ) ;
#3 = MANIFOLD_SOLID_BREP ( 'Corps-Déplacer/Copier1[1]', #203 ) ;
#4 = FACE_OUTER_BOUND ( 'NONE', #42, .T. ) ;
#5 = MANIFOLD_SOLID_BREP ( 'Corps-Déplacer/Copier1[2]', #139 ) ;
#6 = DIRECTION ( 'NONE',  ( -3.491481338843133355E-15, 1.224646799147353207E-16, -1.000000000000000000 ) ) ;
#7 = FACE_OUTER_BOUND ( 'NONE', #196, .T. ) ;
#8 = DIRECTION ( 'NONE',  ( 3.491481338843133355E-15, -1.224646799147353207E-16, 1.000000000000000000 ) ) ;
#9 = DIRECTION ( 'NONE',  ( 3.851859888774483092E-31, 1.000000000000000000, 1.084202172485507639E-16 ) ) ;
#10 = FACE_OUTER_BOUND ( 'NONE', #39, .T. ) ;
#11 = CARTESIAN_POINT ( 'NONE',  ( 7.681258945454893382E-14, 1.499759782661851039E-32, 22.00000000000000000 ) ) ;
#12 = APPROVAL ( #75, 'UNSPECIFIED' ) ;
#13 = EDGE_CURVE ( 'NONE', #136, #136, #52, .T. ) ;
#14 = PLANE ( 'NONE',  #30 ) ;
#15 = DIRECTION ( 'NONE',  ( -3.491481338843133355E-15, 1.224646799147353207E-16, -1.000000000000000000 ) ) ;
#16 = APPROVAL_DATE_TIME ( #32, #65 ) ;
#17 = PERSON_AND_ORGANIZATION ( #86, #148 ) ;
#18 = AXIS2_PLACEMENT_3D ( 'NONE', #11, #124, #58 ) ;
#19 = EDGE_LOOP ( 'NONE', ( #147 ) ) ;
#20 = DIRECTION ( 'NONE',  ( 0.0000000000000000000, 1.000000000000000000, 0.0000000000000000000 ) ) ;
#21 = DIRECTION ( 'NONE',  ( -3.491481338843133355E-15, 1.224646799147353207E-16, -1.000000000000000000 ) ) ;
#22 = SECURITY_CLASSIFICATION ( '', '', #97 ) ;
#23 = CARTESIAN_POINT ( 'NONE',  ( 1.902857329669507363E-13, -6.674325055353074252E-15, 54.49999999999999289 ) ) ;
#24 = DIRECTION ( 'NONE',  ( -4.275831445896958607E-31, -1.000000000000000000, -1.224646799147353207E-16 ) ) ;
#25 =( NAMED_UNIT ( * ) SI_UNIT ( $, .STERADIAN. ) SOLID_ANGLE_UNIT ( ) );
#26 = CC_DESIGN_DATE_AND_TIME_ASSIGNMENT ( #176, #113, ( #64 ) ) ;
#27 = APPLICATION_PROTOCOL_DEFINITION ( 'international standard', 'config_control_design', 1994, #197 ) ;
#28 = VERTEX_POINT ( 'NONE', #200 ) ;
#29 =( NAMED_UNIT ( * ) PLANE_ANGLE_UNIT ( ) SI_UNIT ( $, .RADIAN. ) );
#30 = AXIS2_PLACEMENT_3D ( 'NONE', #77, #15, #135 ) ;
#31 = APPROVAL_DATE_TIME ( #98, #12 ) ;
#32 = DATE_AND_TIME ( #67, #78 ) ;
#33 = ADVANCED_FACE ( 'NONE', ( #167 ), #195, .T. ) ;
#34 = LOCAL_TIME ( 13, 20, 36.00000000000000000, #2 ) ;
#35 = CC_DESIGN_PERSON_AND_ORGANIZATION_ASSIGNMENT ( #126, #79, ( #187 ) ) ;
#36 = PERSON_AND_ORGANIZATION_ROLE ( 'design_supplier' ) ;
#37 = CARTESIAN_POINT ( 'NONE',  ( 7.681258945454893382E-14, 1.499759782661851039E-32, 22.00000000000000000 ) ) ;
#38 = CC_DESIGN_SECURITY_CLASSIFICATION ( #22, ( #161 ) ) ;
#39 = EDGE_LOOP ( 'NONE', ( #178 ) ) ;
#40 = ORIENTED_EDGE ( 'NONE', *, *, #88, .T. ) ;
#41 = AXIS2_PLACEMENT_3D ( 'NONE', #76, #137, #168 ) ;
#42 = EDGE_LOOP ( 'NONE', ( #54 ) ) ;
#43 = CARTESIAN_POINT ( 'NONE',  ( 7.681258945454893382E-14, 1.999999999999994005, 22.00000000000000000 ) ) ;
#44 = DIRECTION ( 'NONE',  ( 0.0000000000000000000, 0.0000000000000000000, 1.000000000000000000 ) ) ;
#45 = CIRCLE ( 'NONE', #57, 2.000000000000000444 ) ;
#46 = FACE_OUTER_BOUND ( 'NONE', #165, .T. ) ;
#47 = CARTESIAN_POINT ( 'NONE',  ( 3.256208973215675025E-15, 1.999999999999994005, 0.9326153163100068255 ) ) ;
#48 = APPROVAL_PERSON_ORGANIZATION ( #172, #12, #50 ) ;
#49 = PERSON_AND_ORGANIZATION_ROLE ( 'creator' ) ;
#50 = APPROVAL_ROLE ( '' ) ;
#51 = PERSON_AND_ORGANIZATION_ROLE ( 'creator' ) ;
#52 = CIRCLE ( 'NONE', #166, 1.999999999999996669 ) ;
#53 = EDGE_CURVE ( 'NONE', #59, #59, #45, .T. ) ;
#54 = ORIENTED_EDGE ( 'NONE', *, *, #88, .F. ) ;
#55 = DIRECTION ( 'NONE',  ( -3.491481338843133355E-15, 1.224646799147353207E-16, -1.000000000000000000 ) ) ;
#56 = EDGE_LOOP ( 'NONE', ( #100 ) ) ;
#57 = AXIS2_PLACEMENT_3D ( 'NONE', #23, #6, #71 ) ;
#58 = DIRECTION ( 'NONE',  ( -4.275831445896958607E-31, -1.000000000000000000, -1.224646799147353207E-16 ) ) ;
#59 = VERTEX_POINT ( 'NONE', #138 ) ;
#60 = VERTEX_POINT ( 'NONE', #202 ) ;
#61 =( LENGTH_UNIT ( ) NAMED_UNIT ( * ) SI_UNIT ( .MILLI., .METRE. ) );
#62 = CC_DESIGN_APPROVAL ( #12, ( #64 ) ) ;
#63 = DIRECTION ( 'NONE',  ( 0.0000000000000000000, 1.000000000000000000, 0.0000000000000000000 ) ) ;
#64 = PRODUCT_DEFINITION ( 'UNKNOWN', '', #161, #91 ) ;
#65 = APPROVAL ( #83, 'UNSPECIFIED' ) ;
#66 = APPROVAL_ROLE ( '' ) ;
#67 = CALENDAR_DATE ( 2021, 6, 10 ) ;
#68 = PRODUCT_DEFINITION_SHAPE ( 'NONE', 'NONE',  #64 ) ;
#69 = APPLICATION_CONTEXT ( 'configuration controlled 3d designs of mechanical parts and assemblies' ) ;
#70 = DIRECTION ( 'NONE',  ( 4.275831445896958607E-31, 1.000000000000000000, 1.224646799147353207E-16 ) ) ;
#71 = DIRECTION ( 'NONE',  ( 0.0000000000000000000, 1.000000000000000000, 0.0000000000000000000 ) ) ;
#72 = AXIS2_PLACEMENT_3D ( 'NONE', #110, #169, #150 ) ;
#73 = ADVANCED_FACE ( 'NONE', ( #7, #90 ), #179, .T. ) ;
#74 = AXIS2_PLACEMENT_3D ( 'NONE', #164, #21, #70 ) ;
#75 = APPROVAL_STATUS ( 'not_yet_approved' ) ;
#76 = CARTESIAN_POINT ( 'NONE',  ( 7.681258945454893382E-14, -2.694222958124176809E-15, 22.00000000000000000 ) ) ;
#77 = CARTESIAN_POINT ( 'NONE',  ( 1.920314736363723472E-13, 1.124819836996383764E-32, 55.00000000000000000 ) ) ;
#78 = LOCAL_TIME ( 13, 20, 36.00000000000000000, #156 ) ;
#79 = PERSON_AND_ORGANIZATION_ROLE ( 'design_owner' ) ;
#80 = CARTESIAN_POINT ( 'NONE',  ( 1.920314736363723472E-13, -6.735557395310442615E-15, 55.00000000000000000 ) ) ;
#81 = CALENDAR_DATE ( 2021, 6, 10 ) ;
#82 = DATE_AND_TIME ( #116, #174 ) ;
#83 = APPROVAL_STATUS ( 'not_yet_approved' ) ;
#84 = COORDINATED_UNIVERSAL_TIME_OFFSET ( 1, 0, .AHEAD. ) ;
#85 = CARTESIAN_POINT ( 'NONE',  ( 7.681258945454893382E-14, -2.694222958124176809E-15, 22.00000000000000000 ) ) ;
#86 = PERSON ( 'UNSPECIFIED', 'UNSPECIFIED', 'UNSPECIFIED', ('UNSPECIFIED'), ('UNSPECIFIED'), ('UNSPECIFIED') ) ;
#87 = CARTESIAN_POINT ( 'NONE',  ( 0.0000000000000000000, 0.0000000000000000000, 0.0000000000000000000 ) ) ;
#88 = EDGE_CURVE ( 'NONE', #93, #93, #199, .T. ) ;
#89 = APPROVAL_PERSON_ORGANIZATION ( #191, #157, #66 ) ;
#90 = FACE_OUTER_BOUND ( 'NONE', #56, .T. ) ;
#91 = DESIGN_CONTEXT ( 'detailed design', #69, 'design' ) ;
#92 = FACE_OUTER_BOUND ( 'NONE', #120, .T. ) ;
#93 = VERTEX_POINT ( 'NONE', #47 ) ;
#94 = PERSON_AND_ORGANIZATION ( #86, #148 ) ;
#95 = CALENDAR_DATE ( 2021, 6, 10 ) ;
#96 = LOCAL_TIME ( 13, 20, 36.00000000000000000, #84 ) ;
#97 = SECURITY_CLASSIFICATION_LEVEL ( 'unclassified' ) ;
#98 = DATE_AND_TIME ( #95, #34 ) ;
#99 = CC_DESIGN_PERSON_AND_ORGANIZATION_ASSIGNMENT ( #193, #49, ( #161 ) ) ;
#100 = ORIENTED_EDGE ( 'NONE', *, *, #53, .T. ) ;
#101 = PRODUCT_RELATED_PRODUCT_CATEGORY ( 'detail', '', ( #187 ) ) ;
#102 = DIRECTION ( 'NONE',  ( -3.491481338843133355E-15, 1.224646799147353207E-16, -1.000000000000000000 ) ) ;
#103 = ORIENTED_EDGE ( 'NONE', *, *, #13, .T. ) ;
#104 = EDGE_LOOP ( 'NONE', ( #119 ) ) ;
#105 = CARTESIAN_POINT ( 'NONE',  ( 1.920314736363723472E-13, -6.735557395310442615E-15, 55.00000000000000000 ) ) ;
#106 = ADVANCED_FACE ( 'NONE', ( #4, #162 ), #146, .T. ) ;
#107 = DIRECTION ( 'NONE',  ( 1.000000000000000000, 0.0000000000000000000, 0.0000000000000000000 ) ) ;
#108 = ADVANCED_FACE ( 'NONE', ( #46 ), #151, .T. ) ;
#109 = DIRECTION ( 'NONE',  ( -3.491481338843133355E-15, 1.224646799147353207E-16, -1.000000000000000000 ) ) ;
#110 = CARTESIAN_POINT ( 'NONE',  ( 3.256208973215674236E-15, -1.142124361954845999E-16, 0.9326153163100066035 ) ) ;
#111 = AXIS2_PLACEMENT_3D ( 'NONE', #130, #102, #9 ) ;
#112 = COORDINATED_UNIVERSAL_TIME_OFFSET ( 1, 0, .AHEAD. ) ;
#113 = DATE_TIME_ROLE ( 'creation_date' ) ;
#114 = CC_DESIGN_APPROVAL ( #157, ( #161 ) ) ;
#115 = ADVANCED_FACE ( 'NONE', ( #10 ), #152, .F. ) ;
#116 = CALENDAR_DATE ( 2021, 6, 10 ) ;
#117 = ADVANCED_BREP_SHAPE_REPRESENTATION ( '55663', ( #3, #5, #134 ), #132 ) ;
#118 = ORIENTED_EDGE ( 'NONE', *, *, #158, .F. ) ;
#119 = ORIENTED_EDGE ( 'NONE', *, *, #13, .F. ) ;
#120 = EDGE_LOOP ( 'NONE', ( #149 ) ) ;
#121 = AXIS2_PLACEMENT_3D ( 'NONE', #87, #55, #180 ) ;
#122 = FACE_OUTER_BOUND ( 'NONE', #177, .T. ) ;
#123 = CC_DESIGN_PERSON_AND_ORGANIZATION_ASSIGNMENT ( #128, #36, ( #161 ) ) ;
#124 = DIRECTION ( 'NONE',  ( 3.491481338843133355E-15, -1.224646799147353207E-16, 1.000000000000000000 ) ) ;
#125 = UNCERTAINTY_MEASURE_WITH_UNIT (LENGTH_MEASURE( 1.000000000000000082E-05 ), #61, 'distance_accuracy_value', 'NONE');
#126 = PERSON_AND_ORGANIZATION ( #86, #148 ) ;
#127 = PERSON_AND_ORGANIZATION ( #86, #148 ) ;
#128 = PERSON_AND_ORGANIZATION ( #86, #148 ) ;
#129 = APPROVAL_DATE_TIME ( #82, #157 ) ;
#130 = CARTESIAN_POINT ( 'NONE',  ( 3.256208973215674236E-15, -1.142124361954845999E-16, 0.9326153163100066035 ) ) ;
#131 = CC_DESIGN_DATE_AND_TIME_ASSIGNMENT ( #141, #190, ( #22 ) ) ;
#132 =( GEOMETRIC_REPRESENTATION_CONTEXT ( 3 ) GLOBAL_UNCERTAINTY_ASSIGNED_CONTEXT ( ( #125 ) ) GLOBAL_UNIT_ASSIGNED_CONTEXT ( ( #61, #29, #25 ) ) REPRESENTATION_CONTEXT ( 'NONE', 'WORKASPACE' ) );
#133 = CC_DESIGN_PERSON_AND_ORGANIZATION_ASSIGNMENT ( #17, #51, ( #64 ) ) ;
#134 = AXIS2_PLACEMENT_3D ( 'NONE', #183, #44, #107 ) ;
#135 = DIRECTION ( 'NONE',  ( 4.275831445896958607E-31, 1.000000000000000000, 1.224646799147353207E-16 ) ) ;
#136 = VERTEX_POINT ( 'NONE', #43 ) ;
#137 = DIRECTION ( 'NONE',  ( -3.491481338843133355E-15, 1.224646799147353207E-16, -1.000000000000000000 ) ) ;
#138 = CARTESIAN_POINT ( 'NONE',  ( 1.902857329669507363E-13, 1.999999999999994005, 54.49999999999999289 ) ) ;
#139 = CLOSED_SHELL ( 'NONE', ( #108, #106, #33 ) ) ;
#140 = DIRECTION ( 'NONE',  ( 0.0000000000000000000, 1.000000000000000000, 0.0000000000000000000 ) ) ;
#141 = DATE_AND_TIME ( #144, #96 ) ;
#142 = ADVANCED_FACE ( 'NONE', ( #122 ), #14, .F. ) ;
#143 = ADVANCED_FACE ( 'NONE', ( #92, #154 ), #170, .T. ) ;
#144 = CALENDAR_DATE ( 2021, 6, 10 ) ;
#145 = CIRCLE ( 'NONE', #1, 1.500000000000000666 ) ;
#146 = CYLINDRICAL_SURFACE ( 'NONE', #74, 1.999999999999995337 ) ;
#147 = ORIENTED_EDGE ( 'NONE', *, *, #194, .T. ) ;
#148 = ORGANIZATION ( 'UNSPECIFIED', 'UNSPECIFIED', '' ) ;
#149 = ORIENTED_EDGE ( 'NONE', *, *, #53, .F. ) ;
#150 = DIRECTION ( 'NONE',  ( -3.851859888774483092E-31, -1.000000000000000000, -1.084202172485507639E-16 ) ) ;
#151 = CONICAL_SURFACE ( 'NONE', #72, 1.999999999999994005, 1.134464013796309123 ) ;
#152 = PLANE ( 'NONE',  #18 ) ;
#153 = MECHANICAL_CONTEXT ( 'NONE', #197, 'mechanical' ) ;
#154 = FACE_BOUND ( 'NONE', #19, .T. ) ;
#155 = APPROVAL_ROLE ( '' ) ;
#156 = COORDINATED_UNIVERSAL_TIME_OFFSET ( 1, 0, .AHEAD. ) ;
#157 = APPROVAL ( #175, 'UNSPECIFIED' ) ;
#158 = EDGE_CURVE ( 'NONE', #28, #28, #184, .T. ) ;
#159 = LOCAL_TIME ( 13, 20, 36.00000000000000000, #188 ) ;
#160 = SHAPE_DEFINITION_REPRESENTATION ( #68, #117 ) ;
#161 = PRODUCT_DEFINITION_FORMATION_WITH_SPECIFIED_SOURCE ( 'ANY', '', #187, .NOT_KNOWN. ) ;
#162 = FACE_OUTER_BOUND ( 'NONE', #198, .T. ) ;
#163 = DIRECTION ( 'NONE',  ( -3.491481338843133355E-15, 1.224646799147353207E-16, -1.000000000000000000 ) ) ;
#164 = CARTESIAN_POINT ( 'NONE',  ( 0.0000000000000000000, 0.0000000000000000000, 0.0000000000000000000 ) ) ;
#165 = EDGE_LOOP ( 'NONE', ( #40 ) ) ;
#166 = AXIS2_PLACEMENT_3D ( 'NONE', #85, #163, #20 ) ;
#167 = FACE_OUTER_BOUND ( 'NONE', #104, .T. ) ;
#168 = DIRECTION ( 'NONE',  ( 0.0000000000000000000, 1.000000000000000000, 0.0000000000000000000 ) ) ;
#169 = DIRECTION ( 'NONE',  ( 3.491481338843133355E-15, -1.224646799147353207E-16, 1.000000000000000000 ) ) ;
#170 = CONICAL_SURFACE ( 'NONE', #182, 1.500000000000000666, 0.7853981633974407295 ) ;
#171 = CC_DESIGN_PERSON_AND_ORGANIZATION_ASSIGNMENT ( #127, #173, ( #22 ) ) ;
#172 = PERSON_AND_ORGANIZATION ( #86, #148 ) ;
#173 = PERSON_AND_ORGANIZATION_ROLE ( 'classification_officer' ) ;
#174 = LOCAL_TIME ( 13, 20, 36.00000000000000000, #112 ) ;
#175 = APPROVAL_STATUS ( 'not_yet_approved' ) ;
#176 = DATE_AND_TIME ( #81, #159 ) ;
#177 = EDGE_LOOP ( 'NONE', ( #181 ) ) ;
#178 = ORIENTED_EDGE ( 'NONE', *, *, #158, .T. ) ;
#179 = CYLINDRICAL_SURFACE ( 'NONE', #121, 1.999999999999998224 ) ;
#180 = DIRECTION ( 'NONE',  ( 4.275831445896957731E-31, 1.000000000000000000, 1.224646799147353207E-16 ) ) ;
#181 = ORIENTED_EDGE ( 'NONE', *, *, #194, .F. ) ;
#182 = AXIS2_PLACEMENT_3D ( 'NONE', #80, #186, #140 ) ;
#183 = CARTESIAN_POINT ( 'NONE',  ( 0.0000000000000000000, 0.0000000000000000000, 0.0000000000000000000 ) ) ;
#184 = CIRCLE ( 'NONE', #41, 1.999999999999996669 ) ;
#185 = APPLICATION_PROTOCOL_DEFINITION ( 'international standard', 'config_control_design', 1994, #69 ) ;
#186 = DIRECTION ( 'NONE',  ( -3.491481338843133355E-15, 1.224646799147353207E-16, -1.000000000000000000 ) ) ;
#187 = PRODUCT ( '55663', '55663', '', ( #153 ) ) ;
#188 = COORDINATED_UNIVERSAL_TIME_OFFSET ( 1, 0, .AHEAD. ) ;
#189 = CC_DESIGN_APPROVAL ( #65, ( #22 ) ) ;
#190 = DATE_TIME_ROLE ( 'classification_date' ) ;
#191 = PERSON_AND_ORGANIZATION ( #86, #148 ) ;
#192 = APPROVAL_PERSON_ORGANIZATION ( #94, #65, #155 ) ;
#193 = PERSON_AND_ORGANIZATION ( #86, #148 ) ;
#194 = EDGE_CURVE ( 'NONE', #60, #60, #145, .T. ) ;
#195 = PLANE ( 'NONE',  #201 ) ;
#196 = EDGE_LOOP ( 'NONE', ( #118 ) ) ;
#197 = APPLICATION_CONTEXT ( 'configuration controlled 3d designs of mechanical parts and assemblies' ) ;
#198 = EDGE_LOOP ( 'NONE', ( #103 ) ) ;
#199 = CIRCLE ( 'NONE', #111, 1.999999999999994005 ) ;
#200 = CARTESIAN_POINT ( 'NONE',  ( 7.681258945454893382E-14, 1.999999999999994005, 22.00000000000000000 ) ) ;
#201 = AXIS2_PLACEMENT_3D ( 'NONE', #37, #8, #24 ) ;
#202 = CARTESIAN_POINT ( 'NONE',  ( 1.920314736363723472E-13, 1.499999999999994005, 55.00000000000000000 ) ) ;
#203 = CLOSED_SHELL ( 'NONE', ( #115, #73, #143, #142 ) ) ;
ENDSEC;
END-ISO-10303-21;
