ISO-10303-21;
HEADER;
FILE_DESCRIPTION (( 'STEP AP203' ),
    '1' );
FILE_NAME ('55661.step',
    '2021-10-06T11:20:34',
    ( '' ),
    ( '' ),
    'SwSTEP 2.0',
    'SolidWorks 2019',
    '' );
FILE_SCHEMA (( 'CONFIG_CONTROL_DESIGN' ));
ENDSEC;

DATA;
#1 = LOCAL_TIME ( 13, 20, 34.00000000000000000, #4 ) ;
#2 = DATE_AND_TIME ( #176, #142 ) ;
#3 = FACE_OUTER_BOUND ( 'NONE', #141, .T. ) ;
#4 = COORDINATED_UNIVERSAL_TIME_OFFSET ( 1, 0, .AHEAD. ) ;
#5 = ADVANCED_FACE ( 'NONE', ( #3, #115 ), #179, .T. ) ;
#6 = ORIENTED_EDGE ( 'NONE', *, *, #201, .F. ) ;
#7 = COORDINATED_UNIVERSAL_TIME_OFFSET ( 1, 0, .AHEAD. ) ;
#8 = AXIS2_PLACEMENT_3D ( 'NONE', #54, #127, #173 ) ;
#9 = APPROVAL_STATUS ( 'not_yet_approved' ) ;
#10 =( GEOMETRIC_REPRESENTATION_CONTEXT ( 3 ) GLOBAL_UNCERTAINTY_ASSIGNED_CONTEXT ( ( #167 ) ) GLOBAL_UNIT_ASSIGNED_CONTEXT ( ( #89, #74, #34 ) ) REPRESENTATION_CONTEXT ( 'NONE', 'WORKASPACE' ) );
#11 = CC_DESIGN_PERSON_AND_ORGANIZATION_ASSIGNMENT ( #69, #172, ( #119 ) ) ;
#12 = CARTESIAN_POINT ( 'NONE',  ( 6.982962677686266711E-14, 1.749999999999994227, 20.00000000000000000 ) ) ;
#13 = FACE_OUTER_BOUND ( 'NONE', #68, .T. ) ;
#14 = FACE_OUTER_BOUND ( 'NONE', #126, .T. ) ;
#15 = DIRECTION ( 'NONE',  ( -3.491481338843133355E-15, 1.224646799147353207E-16, -1.000000000000000000 ) ) ;
#16 = EDGE_LOOP ( 'NONE', ( #114 ) ) ;
#17 = ORIENTED_EDGE ( 'NONE', *, *, #27, .T. ) ;
#18 = PERSON_AND_ORGANIZATION ( #152, #94 ) ;
#19 = PERSON_AND_ORGANIZATION ( #152, #94 ) ;
#20 = PERSON_AND_ORGANIZATION ( #152, #94 ) ;
#21 = DIRECTION ( 'NONE',  ( 0.0000000000000000000, 1.000000000000000000, 0.0000000000000000000 ) ) ;
#22 = APPROVAL ( #9, 'UNSPECIFIED' ) ;
#23 = FACE_OUTER_BOUND ( 'NONE', #51, .T. ) ;
#24 = CONICAL_SURFACE ( 'NONE', #43, 1.350000000000000311, 0.7853981633974512766 ) ;
#25 = CC_DESIGN_PERSON_AND_ORGANIZATION_ASSIGNMENT ( #174, #82, ( #128 ) ) ;
#26 = PLANE ( 'NONE',  #178 ) ;
#27 = EDGE_CURVE ( 'NONE', #146, #146, #95, .T. ) ;
#28 = VERTEX_POINT ( 'NONE', #76 ) ;
#29 = CC_DESIGN_PERSON_AND_ORGANIZATION_ASSIGNMENT ( #104, #100, ( #128 ) ) ;
#30 = CIRCLE ( 'NONE', #193, 1.749999999999994227 ) ;
#31 = LOCAL_TIME ( 13, 20, 34.00000000000000000, #116 ) ;
#32 = DIRECTION ( 'NONE',  ( 0.0000000000000000000, 1.000000000000000000, 0.0000000000000000000 ) ) ;
#33 = DESIGN_CONTEXT ( 'detailed design', #41, 'design' ) ;
#34 =( NAMED_UNIT ( * ) SI_UNIT ( $, .STERADIAN. ) SOLID_ANGLE_UNIT ( ) );
#35 = ADVANCED_FACE ( 'NONE', ( #194, #184 ), #24, .T. ) ;
#36 = EDGE_LOOP ( 'NONE', ( #175 ) ) ;
#37 = ORIENTED_EDGE ( 'NONE', *, *, #64, .F. ) ;
#38 = CARTESIAN_POINT ( 'NONE',  ( 0.0000000000000000000, 0.0000000000000000000, 0.0000000000000000000 ) ) ;
#39 = CARTESIAN_POINT ( 'NONE',  ( 2.849182851563714168E-15, -9.993588167104900330E-17, 0.8160384017712556393 ) ) ;
#40 = DIRECTION ( 'NONE',  ( -3.491481338843133355E-15, 1.224646799147353207E-16, -1.000000000000000000 ) ) ;
#41 = APPLICATION_CONTEXT ( 'configuration controlled 3d designs of mechanical parts and assemblies' ) ;
#42 = DIRECTION ( 'NONE',  ( -4.402125587170838945E-31, -1.000000000000000000, -1.239088197126294761E-16 ) ) ;
#43 = AXIS2_PLACEMENT_3D ( 'NONE', #75, #124, #32 ) ;
#44 = LOCAL_TIME ( 13, 20, 34.00000000000000000, #154 ) ;
#45 = MECHANICAL_CONTEXT ( 'NONE', #145, 'mechanical' ) ;
#46 = EDGE_LOOP ( 'NONE', ( #153 ) ) ;
#47 = CALENDAR_DATE ( 2021, 6, 10 ) ;
#48 = ORIENTED_EDGE ( 'NONE', *, *, #59, .T. ) ;
#49 = CC_DESIGN_DATE_AND_TIME_ASSIGNMENT ( #84, #155, ( #125 ) ) ;
#50 = PERSON_AND_ORGANIZATION_ROLE ( 'classification_officer' ) ;
#51 = EDGE_LOOP ( 'NONE', ( #156 ) ) ;
#52 = CIRCLE ( 'NONE', #63, 1.749999999999996669 ) ;
#53 = DATE_AND_TIME ( #112, #31 ) ;
#54 = CARTESIAN_POINT ( 'NONE',  ( 6.982962677686266711E-14, -2.449293598294706513E-15, 20.00000000000000000 ) ) ;
#55 = APPROVAL_PERSON_ORGANIZATION ( #18, #22, #72 ) ;
#56 = PRODUCT_DEFINITION_SHAPE ( 'NONE', 'NONE',  #125 ) ;
#57 = CC_DESIGN_PERSON_AND_ORGANIZATION_ASSIGNMENT ( #20, #50, ( #171 ) ) ;
#58 = DATE_AND_TIME ( #105, #131 ) ;
#59 = EDGE_CURVE ( 'NONE', #137, #137, #52, .T. ) ;
#60 = AXIS2_PLACEMENT_3D ( 'NONE', #190, #40, #168 ) ;
#61 = CARTESIAN_POINT ( 'NONE',  ( 2.849182851563714168E-15, -9.993588167104900330E-17, 0.8160384017712556393 ) ) ;
#62 = DIRECTION ( 'NONE',  ( 3.491481338843133355E-15, -1.224646799147353207E-16, 1.000000000000000000 ) ) ;
#63 = AXIS2_PLACEMENT_3D ( 'NONE', #133, #90, #149 ) ;
#64 = EDGE_CURVE ( 'NONE', #144, #144, #30, .T. ) ;
#65 = ORIENTED_EDGE ( 'NONE', *, *, #59, .F. ) ;
#66 = AXIS2_PLACEMENT_3D ( 'NONE', #187, #78, #79 ) ;
#67 = CIRCLE ( 'NONE', #60, 1.350000000000000311 ) ;
#68 = EDGE_LOOP ( 'NONE', ( #48 ) ) ;
#69 = PERSON_AND_ORGANIZATION ( #152, #94 ) ;
#70 = APPROVAL_DATE_TIME ( #96, #22 ) ;
#71 = CC_DESIGN_APPROVAL ( #189, ( #128 ) ) ;
#72 = APPROVAL_ROLE ( '' ) ;
#73 = MANIFOLD_SOLID_BREP ( 'Corps-Déplacer/Copier1[2]', #77 ) ;
#74 =( NAMED_UNIT ( * ) PLANE_ANGLE_UNIT ( ) SI_UNIT ( $, .RADIAN. ) );
#75 = CARTESIAN_POINT ( 'NONE',  ( 1.745740669421566678E-13, -6.123233995736766085E-15, 50.00000000000000000 ) ) ;
#76 = CARTESIAN_POINT ( 'NONE',  ( 1.731774744066194397E-13, 1.749999999999994227, 49.60000000000000853 ) ) ;
#77 = CLOSED_SHELL ( 'NONE', ( #143, #5, #198 ) ) ;
#78 = DIRECTION ( 'NONE',  ( -3.491481338843133355E-15, 1.224646799147353207E-16, -1.000000000000000000 ) ) ;
#79 = DIRECTION ( 'NONE',  ( 4.275831445896958607E-31, 1.000000000000000000, 1.224646799147353207E-16 ) ) ;
#80 = PERSON_AND_ORGANIZATION ( #152, #94 ) ;
#81 = COORDINATED_UNIVERSAL_TIME_OFFSET ( 1, 0, .AHEAD. ) ;
#82 = PERSON_AND_ORGANIZATION_ROLE ( 'design_supplier' ) ;
#83 = EDGE_LOOP ( 'NONE', ( #17 ) ) ;
#84 = DATE_AND_TIME ( #88, #1 ) ;
#85 = APPROVAL_ROLE ( '' ) ;
#86 = ADVANCED_FACE ( 'NONE', ( #13 ), #150, .F. ) ;
#87 = SHAPE_DEFINITION_REPRESENTATION ( #56, #203 ) ;
#88 = CALENDAR_DATE ( 2021, 6, 10 ) ;
#89 =( LENGTH_UNIT ( ) NAMED_UNIT ( * ) SI_UNIT ( .MILLI., .METRE. ) );
#90 = DIRECTION ( 'NONE',  ( -3.491481338843133355E-15, 1.224646799147353207E-16, -1.000000000000000000 ) ) ;
#91 = CARTESIAN_POINT ( 'NONE',  ( 6.982962677686266711E-14, 1.312289809829119386E-32, 20.00000000000000000 ) ) ;
#92 = ADVANCED_FACE ( 'NONE', ( #14 ), #199, .F. ) ;
#93 = CIRCLE ( 'NONE', #147, 1.750000000000000222 ) ;
#94 = ORGANIZATION ( 'UNSPECIFIED', 'UNSPECIFIED', '' ) ;
#95 = CIRCLE ( 'NONE', #8, 1.749999999999996669 ) ;
#96 = DATE_AND_TIME ( #47, #44 ) ;
#97 = CC_DESIGN_DATE_AND_TIME_ASSIGNMENT ( #2, #159, ( #171 ) ) ;
#98 = CARTESIAN_POINT ( 'NONE',  ( 0.0000000000000000000, 0.0000000000000000000, 0.0000000000000000000 ) ) ;
#99 = EDGE_LOOP ( 'NONE', ( #65 ) ) ;
#100 = PERSON_AND_ORGANIZATION_ROLE ( 'creator' ) ;
#101 = DIRECTION ( 'NONE',  ( -3.491481338843133355E-15, 1.224646799147353207E-16, -1.000000000000000000 ) ) ;
#102 = CC_DESIGN_SECURITY_CLASSIFICATION ( #171, ( #128 ) ) ;
#103 = SECURITY_CLASSIFICATION_LEVEL ( 'unclassified' ) ;
#104 = PERSON_AND_ORGANIZATION ( #152, #94 ) ;
#105 = CALENDAR_DATE ( 2021, 6, 10 ) ;
#106 = AXIS2_PLACEMENT_3D ( 'NONE', #91, #109, #165 ) ;
#107 = DIRECTION ( 'NONE',  ( -3.491481338843133355E-15, 1.224646799147353207E-16, -1.000000000000000000 ) ) ;
#108 = CARTESIAN_POINT ( 'NONE',  ( 6.982962677686266711E-14, 1.312289809829119386E-32, 20.00000000000000000 ) ) ;
#109 = DIRECTION ( 'NONE',  ( 3.491481338843133355E-15, -1.224646799147353207E-16, 1.000000000000000000 ) ) ;
#110 = CC_DESIGN_APPROVAL ( #22, ( #171 ) ) ;
#111 = APPLICATION_PROTOCOL_DEFINITION ( 'international standard', 'config_control_design', 1994, #41 ) ;
#112 = CALENDAR_DATE ( 2021, 6, 10 ) ;
#113 = APPROVAL_DATE_TIME ( #53, #189 ) ;
#114 = ORIENTED_EDGE ( 'NONE', *, *, #161, .F. ) ;
#115 = FACE_OUTER_BOUND ( 'NONE', #83, .T. ) ;
#116 = COORDINATED_UNIVERSAL_TIME_OFFSET ( 1, 0, .AHEAD. ) ;
#117 = APPROVAL_STATUS ( 'not_yet_approved' ) ;
#118 = AXIS2_PLACEMENT_3D ( 'NONE', #38, #107, #129 ) ;
#119 = PRODUCT ( '55661', '55661', '', ( #45 ) ) ;
#120 = DIRECTION ( 'NONE',  ( 3.491481338843133355E-15, -1.224646799147353207E-16, 1.000000000000000000 ) ) ;
#121 = CARTESIAN_POINT ( 'NONE',  ( 6.982962677686266711E-14, 1.749999999999994227, 20.00000000000000000 ) ) ;
#122 = CARTESIAN_POINT ( 'NONE',  ( 1.745740669421566678E-13, 1.349999999999994316, 50.00000000000000000 ) ) ;
#123 = AXIS2_PLACEMENT_3D ( 'NONE', #98, #139, #202 ) ;
#124 = DIRECTION ( 'NONE',  ( -3.491481338843133355E-15, 1.224646799147353207E-16, -1.000000000000000000 ) ) ;
#125 = PRODUCT_DEFINITION ( 'UNKNOWN', '', #128, #33 ) ;
#126 = EDGE_LOOP ( 'NONE', ( #6 ) ) ;
#127 = DIRECTION ( 'NONE',  ( -3.491481338843133355E-15, 1.224646799147353207E-16, -1.000000000000000000 ) ) ;
#128 = PRODUCT_DEFINITION_FORMATION_WITH_SPECIFIED_SOURCE ( 'ANY', '', #119, .NOT_KNOWN. ) ;
#129 = DIRECTION ( 'NONE',  ( 4.275831445896958607E-31, 1.000000000000000000, 1.224646799147353207E-16 ) ) ;
#130 = FACE_OUTER_BOUND ( 'NONE', #99, .T. ) ;
#131 = LOCAL_TIME ( 13, 20, 34.00000000000000000, #7 ) ;
#132 = APPROVAL_STATUS ( 'not_yet_approved' ) ;
#133 = CARTESIAN_POINT ( 'NONE',  ( 6.982962677686266711E-14, -2.449293598294706513E-15, 20.00000000000000000 ) ) ;
#134 = CLOSED_SHELL ( 'NONE', ( #86, #169, #35, #92 ) ) ;
#135 = DIRECTION ( 'NONE',  ( -4.275831445896958607E-31, -1.000000000000000000, -1.224646799147353207E-16 ) ) ;
#136 = APPROVAL_PERSON_ORGANIZATION ( #19, #140, #85 ) ;
#137 = VERTEX_POINT ( 'NONE', #121 ) ;
#138 = MANIFOLD_SOLID_BREP ( 'Corps-Déplacer/Copier1[1]', #134 ) ;
#139 = DIRECTION ( 'NONE',  ( 0.0000000000000000000, 0.0000000000000000000, 1.000000000000000000 ) ) ;
#140 = APPROVAL ( #117, 'UNSPECIFIED' ) ;
#141 = EDGE_LOOP ( 'NONE', ( #37 ) ) ;
#142 = LOCAL_TIME ( 13, 20, 34.00000000000000000, #81 ) ;
#143 = ADVANCED_FACE ( 'NONE', ( #200 ), #191, .T. ) ;
#144 = VERTEX_POINT ( 'NONE', #166 ) ;
#145 = APPLICATION_CONTEXT ( 'configuration controlled 3d designs of mechanical parts and assemblies' ) ;
#146 = VERTEX_POINT ( 'NONE', #12 ) ;
#147 = AXIS2_PLACEMENT_3D ( 'NONE', #160, #15, #21 ) ;
#148 = PERSON_AND_ORGANIZATION_ROLE ( 'creator' ) ;
#149 = DIRECTION ( 'NONE',  ( 0.0000000000000000000, 1.000000000000000000, 0.0000000000000000000 ) ) ;
#150 = PLANE ( 'NONE',  #106 ) ;
#151 = CC_DESIGN_APPROVAL ( #140, ( #125 ) ) ;
#152 = PERSON ( 'UNSPECIFIED', 'UNSPECIFIED', 'UNSPECIFIED', ('UNSPECIFIED'), ('UNSPECIFIED'), ('UNSPECIFIED') ) ;
#153 = ORIENTED_EDGE ( 'NONE', *, *, #161, .T. ) ;
#154 = COORDINATED_UNIVERSAL_TIME_OFFSET ( 1, 0, .AHEAD. ) ;
#155 = DATE_TIME_ROLE ( 'creation_date' ) ;
#156 = ORIENTED_EDGE ( 'NONE', *, *, #27, .F. ) ;
#157 = APPROVAL_PERSON_ORGANIZATION ( #182, #189, #192 ) ;
#158 = DIRECTION ( 'NONE',  ( 4.275831445896958607E-31, 1.000000000000000000, 1.224646799147353207E-16 ) ) ;
#159 = DATE_TIME_ROLE ( 'classification_date' ) ;
#160 = CARTESIAN_POINT ( 'NONE',  ( 1.731774744066194397E-13, -6.074248123770872657E-15, 49.60000000000000853 ) ) ;
#161 = EDGE_CURVE ( 'NONE', #28, #28, #93, .T. ) ;
#162 = AXIS2_PLACEMENT_3D ( 'NONE', #61, #120, #42 ) ;
#163 = PRODUCT_RELATED_PRODUCT_CATEGORY ( 'detail', '', ( #119 ) ) ;
#164 = VERTEX_POINT ( 'NONE', #122 ) ;
#165 = DIRECTION ( 'NONE',  ( -4.275831445896958607E-31, -1.000000000000000000, -1.224646799147353207E-16 ) ) ;
#166 = CARTESIAN_POINT ( 'NONE',  ( 2.849182851563714957E-15, 1.749999999999994227, 0.8160384017712558613 ) ) ;
#167 = UNCERTAINTY_MEASURE_WITH_UNIT (LENGTH_MEASURE( 1.000000000000000082E-05 ), #89, 'distance_accuracy_value', 'NONE');
#168 = DIRECTION ( 'NONE',  ( 0.0000000000000000000, 1.000000000000000000, 0.0000000000000000000 ) ) ;
#169 = ADVANCED_FACE ( 'NONE', ( #130, #181 ), #183, .T. ) ;
#170 = APPLICATION_PROTOCOL_DEFINITION ( 'international standard', 'config_control_design', 1994, #145 ) ;
#171 = SECURITY_CLASSIFICATION ( '', '', #103 ) ;
#172 = PERSON_AND_ORGANIZATION_ROLE ( 'design_owner' ) ;
#173 = DIRECTION ( 'NONE',  ( 0.0000000000000000000, 1.000000000000000000, 0.0000000000000000000 ) ) ;
#174 = PERSON_AND_ORGANIZATION ( #152, #94 ) ;
#175 = ORIENTED_EDGE ( 'NONE', *, *, #201, .T. ) ;
#176 = CALENDAR_DATE ( 2021, 6, 10 ) ;
#177 = CARTESIAN_POINT ( 'NONE',  ( 0.0000000000000000000, 0.0000000000000000000, 0.0000000000000000000 ) ) ;
#178 = AXIS2_PLACEMENT_3D ( 'NONE', #108, #62, #135 ) ;
#179 = CYLINDRICAL_SURFACE ( 'NONE', #185, 1.749999999999995559 ) ;
#180 = CC_DESIGN_PERSON_AND_ORGANIZATION_ASSIGNMENT ( #80, #148, ( #125 ) ) ;
#181 = FACE_OUTER_BOUND ( 'NONE', #46, .T. ) ;
#182 = PERSON_AND_ORGANIZATION ( #152, #94 ) ;
#183 = CYLINDRICAL_SURFACE ( 'NONE', #118, 1.749999999999998446 ) ;
#184 = FACE_BOUND ( 'NONE', #36, .T. ) ;
#185 = AXIS2_PLACEMENT_3D ( 'NONE', #177, #101, #158 ) ;
#186 = DIRECTION ( 'NONE',  ( 4.402125587170838945E-31, 1.000000000000000000, 1.239088197126294761E-16 ) ) ;
#187 = CARTESIAN_POINT ( 'NONE',  ( 1.745740669421566678E-13, 1.012337853296745127E-32, 50.00000000000000000 ) ) ;
#188 = APPROVAL_DATE_TIME ( #58, #140 ) ;
#189 = APPROVAL ( #132, 'UNSPECIFIED' ) ;
#190 = CARTESIAN_POINT ( 'NONE',  ( 1.745740669421566678E-13, -6.123233995736766085E-15, 50.00000000000000000 ) ) ;
#191 = CONICAL_SURFACE ( 'NONE', #162, 1.749999999999994227, 1.134464013796309123 ) ;
#192 = APPROVAL_ROLE ( '' ) ;
#193 = AXIS2_PLACEMENT_3D ( 'NONE', #39, #197, #186 ) ;
#194 = FACE_OUTER_BOUND ( 'NONE', #16, .T. ) ;
#195 = EDGE_LOOP ( 'NONE', ( #196 ) ) ;
#196 = ORIENTED_EDGE ( 'NONE', *, *, #64, .T. ) ;
#197 = DIRECTION ( 'NONE',  ( -3.491481338843133355E-15, 1.224646799147353207E-16, -1.000000000000000000 ) ) ;
#198 = ADVANCED_FACE ( 'NONE', ( #23 ), #26, .T. ) ;
#199 = PLANE ( 'NONE',  #66 ) ;
#200 = FACE_OUTER_BOUND ( 'NONE', #195, .T. ) ;
#201 = EDGE_CURVE ( 'NONE', #164, #164, #67, .T. ) ;
#202 = DIRECTION ( 'NONE',  ( 1.000000000000000000, 0.0000000000000000000, 0.0000000000000000000 ) ) ;
#203 = ADVANCED_BREP_SHAPE_REPRESENTATION ( '55661', ( #138, #73, #123 ), #10 ) ;
ENDSEC;
END-ISO-10303-21;
