ISO-10303-21;
HEADER;
FILE_DESCRIPTION (( 'STEP AP203' ),
    '1' );
FILE_NAME ('55659.step',
    '2021-10-06T11:20:32',
    ( '' ),
    ( '' ),
    'SwSTEP 2.0',
    'SolidWorks 2019',
    '' );
FILE_SCHEMA (( 'CONFIG_CONTROL_DESIGN' ));
ENDSEC;

DATA;
#1 = DATE_TIME_ROLE ( 'creation_date' ) ;
#2 = CALENDAR_DATE ( 2021, 6, 10 ) ;
#3 = VERTEX_POINT ( 'NONE', #108 ) ;
#4 = CLOSED_SHELL ( 'NONE', ( #203, #106, #27, #7 ) ) ;
#5 = APPLICATION_PROTOCOL_DEFINITION ( 'international standard', 'config_control_design', 1994, #153 ) ;
#6 = EDGE_CURVE ( 'NONE', #176, #176, #168, .T. ) ;
#7 = ADVANCED_FACE ( 'NONE', ( #186 ), #53, .F. ) ;
#8 = AXIS2_PLACEMENT_3D ( 'NONE', #116, #170, #145 ) ;
#9 =( GEOMETRIC_REPRESENTATION_CONTEXT ( 3 ) GLOBAL_UNCERTAINTY_ASSIGNED_CONTEXT ( ( #52 ) ) GLOBAL_UNIT_ASSIGNED_CONTEXT ( ( #38, #55, #107 ) ) REPRESENTATION_CONTEXT ( 'NONE', 'WORKASPACE' ) );
#10 = PLANE ( 'NONE',  #19 ) ;
#11 = EDGE_LOOP ( 'NONE', ( #172 ) ) ;
#12 = DIRECTION ( 'NONE',  ( -3.491481338843133355E-15, 1.224646799147353207E-16, -1.000000000000000000 ) ) ;
#13 = CC_DESIGN_DATE_AND_TIME_ASSIGNMENT ( #98, #36, ( #147 ) ) ;
#14 = AXIS2_PLACEMENT_3D ( 'NONE', #57, #122, #39 ) ;
#15 = MANIFOLD_SOLID_BREP ( 'Corps-Déplacer/Copier1[1]', #4 ) ;
#16 = ORIENTED_EDGE ( 'NONE', *, *, #32, .T. ) ;
#17 = DATE_AND_TIME ( #94, #164 ) ;
#18 = COORDINATED_UNIVERSAL_TIME_OFFSET ( 1, 0, .AHEAD. ) ;
#19 = AXIS2_PLACEMENT_3D ( 'NONE', #142, #156, #127 ) ;
#20 = DIRECTION ( 'NONE',  ( 4.275831445896958607E-31, 1.000000000000000000, 1.224646799147352961E-16 ) ) ;
#21 = CC_DESIGN_PERSON_AND_ORGANIZATION_ASSIGNMENT ( #183, #77, ( #40 ) ) ;
#22 = EDGE_CURVE ( 'NONE', #84, #84, #120, .T. ) ;
#23 = DATE_AND_TIME ( #2, #132 ) ;
#24 = FACE_OUTER_BOUND ( 'NONE', #45, .T. ) ;
#25 = VERTEX_POINT ( 'NONE', #137 ) ;
#26 = MECHANICAL_CONTEXT ( 'NONE', #89, 'mechanical' ) ;
#27 = ADVANCED_FACE ( 'NONE', ( #95, #124 ), #167, .T. ) ;
#28 = CARTESIAN_POINT ( 'NONE',  ( 6.284666409917640040E-14, -2.204364238465235428E-15, 18.00000000000000000 ) ) ;
#29 = AXIS2_PLACEMENT_3D ( 'NONE', #158, #90, #31 ) ;
#30 = ORIENTED_EDGE ( 'NONE', *, *, #99, .T. ) ;
#31 = DIRECTION ( 'NONE',  ( 0.0000000000000000000, 1.000000000000000000, 0.0000000000000000000 ) ) ;
#32 = EDGE_CURVE ( 'NONE', #190, #190, #44, .T. ) ;
#33 = ORIENTED_EDGE ( 'NONE', *, *, #99, .F. ) ;
#34 = CC_DESIGN_APPROVAL ( #121, ( #40 ) ) ;
#35 = EDGE_LOOP ( 'NONE', ( #112 ) ) ;
#36 = DATE_TIME_ROLE ( 'classification_date' ) ;
#37 = CALENDAR_DATE ( 2021, 6, 10 ) ;
#38 =( LENGTH_UNIT ( ) NAMED_UNIT ( * ) SI_UNIT ( .MILLI., .METRE. ) );
#39 = DIRECTION ( 'NONE',  ( 1.000000000000000000, 0.0000000000000000000, 0.0000000000000000000 ) ) ;
#40 = PRODUCT_DEFINITION_FORMATION_WITH_SPECIFIED_SOURCE ( 'ANY', '', #88, .NOT_KNOWN. ) ;
#41 = AXIS2_PLACEMENT_3D ( 'NONE', #193, #62, #20 ) ;
#42 = APPROVAL_PERSON_ORGANIZATION ( #118, #121, #102 ) ;
#43 = EDGE_LOOP ( 'NONE', ( #110 ) ) ;
#44 = CIRCLE ( 'NONE', #202, 1.649999999999994360 ) ;
#45 = EDGE_LOOP ( 'NONE', ( #160 ) ) ;
#46 = EDGE_LOOP ( 'NONE', ( #125 ) ) ;
#47 = DESIGN_CONTEXT ( 'detailed design', #153, 'design' ) ;
#48 = PERSON_AND_ORGANIZATION_ROLE ( 'classification_officer' ) ;
#49 = ORIENTED_EDGE ( 'NONE', *, *, #6, .F. ) ;
#50 = CALENDAR_DATE ( 2021, 6, 10 ) ;
#51 = LOCAL_TIME ( 13, 20, 32.00000000000000000, #58 ) ;
#52 = UNCERTAINTY_MEASURE_WITH_UNIT (LENGTH_MEASURE( 1.000000000000000082E-05 ), #38, 'distance_accuracy_value', 'NONE');
#53 = PLANE ( 'NONE',  #8 ) ;
#54 = APPROVAL_DATE_TIME ( #136, #155 ) ;
#55 =( NAMED_UNIT ( * ) PLANE_ANGLE_UNIT ( ) SI_UNIT ( $, .RADIAN. ) );
#56 = CARTESIAN_POINT ( 'NONE',  ( 6.284666409917640040E-14, 1.649999999999994360, 18.00000000000000000 ) ) ;
#57 = CARTESIAN_POINT ( 'NONE',  ( 0.0000000000000000000, 0.0000000000000000000, 0.0000000000000000000 ) ) ;
#58 = COORDINATED_UNIVERSAL_TIME_OFFSET ( 1, 0, .AHEAD. ) ;
#59 = AXIS2_PLACEMENT_3D ( 'NONE', #201, #68, #130 ) ;
#60 = CC_DESIGN_SECURITY_CLASSIFICATION ( #147, ( #40 ) ) ;
#61 = EDGE_LOOP ( 'NONE', ( #33 ) ) ;
#62 = DIRECTION ( 'NONE',  ( -3.491481338843133355E-15, 1.224646799147353207E-16, -1.000000000000000000 ) ) ;
#63 = PERSON_AND_ORGANIZATION ( #93, #135 ) ;
#64 = DIRECTION ( 'NONE',  ( -4.668921077302406163E-31, -1.000000000000000000, -1.314184451497585696E-16 ) ) ;
#65 = CC_DESIGN_PERSON_AND_ORGANIZATION_ASSIGNMENT ( #152, #105, ( #88 ) ) ;
#66 = EDGE_LOOP ( 'NONE', ( #30 ) ) ;
#67 = SHAPE_DEFINITION_REPRESENTATION ( #123, #81 ) ;
#68 = DIRECTION ( 'NONE',  ( -3.491481338843133355E-15, 1.224646799147353207E-16, -1.000000000000000000 ) ) ;
#69 = EDGE_CURVE ( 'NONE', #3, #3, #146, .T. ) ;
#70 = PERSON_AND_ORGANIZATION ( #93, #135 ) ;
#71 = CARTESIAN_POINT ( 'NONE',  ( 6.284666409917640040E-14, 1.237301820696026779E-32, 18.00000000000000000 ) ) ;
#72 = ADVANCED_FACE ( 'NONE', ( #197 ), #101, .T. ) ;
#73 = AXIS2_PLACEMENT_3D ( 'NONE', #92, #128, #154 ) ;
#74 = APPLICATION_PROTOCOL_DEFINITION ( 'international standard', 'config_control_design', 1994, #89 ) ;
#75 = FACE_OUTER_BOUND ( 'NONE', #173, .T. ) ;
#76 = FACE_OUTER_BOUND ( 'NONE', #66, .T. ) ;
#77 = PERSON_AND_ORGANIZATION_ROLE ( 'creator' ) ;
#78 = DIRECTION ( 'NONE',  ( 4.668921077302406163E-31, 1.000000000000000000, 1.314184451497585696E-16 ) ) ;
#79 = CC_DESIGN_APPROVAL ( #155, ( #126 ) ) ;
#80 = EDGE_LOOP ( 'NONE', ( #113 ) ) ;
#81 = ADVANCED_BREP_SHAPE_REPRESENTATION ( '55659', ( #15, #85, #14 ), #9 ) ;
#82 = DATE_AND_TIME ( #111, #196 ) ;
#83 = EDGE_LOOP ( 'NONE', ( #16 ) ) ;
#84 = VERTEX_POINT ( 'NONE', #56 ) ;
#85 = MANIFOLD_SOLID_BREP ( 'Corps-Déplacer/Copier1[2]', #179 ) ;
#86 = DIRECTION ( 'NONE',  ( 4.275831445896958607E-31, 1.000000000000000000, 1.224646799147353207E-16 ) ) ;
#87 = DIRECTION ( 'NONE',  ( -3.491481338843133355E-15, 1.224646799147353207E-16, -1.000000000000000000 ) ) ;
#88 = PRODUCT ( '55659', '55659', '', ( #26 ) ) ;
#89 = APPLICATION_CONTEXT ( 'configuration controlled 3d designs of mechanical parts and assemblies' ) ;
#90 = DIRECTION ( 'NONE',  ( -3.491481338843133355E-15, 1.224646799147353207E-16, -1.000000000000000000 ) ) ;
#91 = FACE_OUTER_BOUND ( 'NONE', #46, .T. ) ;
#92 = CARTESIAN_POINT ( 'NONE',  ( 1.710825856033135470E-13, -6.000769315822030937E-15, 49.00000000000000000 ) ) ;
#93 = PERSON ( 'UNSPECIFIED', 'UNSPECIFIED', 'UNSPECIFIED', ('UNSPECIFIED'), ('UNSPECIFIED'), ('UNSPECIFIED') ) ;
#94 = CALENDAR_DATE ( 2021, 6, 10 ) ;
#95 = FACE_OUTER_BOUND ( 'NONE', #61, .T. ) ;
#96 = ADVANCED_FACE ( 'NONE', ( #75 ), #10, .T. ) ;
#97 = AXIS2_PLACEMENT_3D ( 'NONE', #189, #87, #86 ) ;
#98 = DATE_AND_TIME ( #50, #159 ) ;
#99 = EDGE_CURVE ( 'NONE', #25, #25, #134, .T. ) ;
#100 = CC_DESIGN_PERSON_AND_ORGANIZATION_ASSIGNMENT ( #161, #195, ( #40 ) ) ;
#101 = CONICAL_SURFACE ( 'NONE', #194, 1.649999999999994360, 1.134464013796309123 ) ;
#102 = APPROVAL_ROLE ( '' ) ;
#103 = DIRECTION ( 'NONE',  ( 3.491481338843133355E-15, -1.224646799147353207E-16, 1.000000000000000000 ) ) ;
#104 = APPROVAL ( #162, 'UNSPECIFIED' ) ;
#105 = PERSON_AND_ORGANIZATION_ROLE ( 'design_owner' ) ;
#106 = ADVANCED_FACE ( 'NONE', ( #91, #76 ), #143, .T. ) ;
#107 =( NAMED_UNIT ( * ) SI_UNIT ( $, .STERADIAN. ) SOLID_ANGLE_UNIT ( ) );
#108 = CARTESIAN_POINT ( 'NONE',  ( 1.710825856033135470E-13, 1.249999999999994449, 49.00000000000000000 ) ) ;
#109 = DIRECTION ( 'NONE',  ( -3.491481338843133355E-15, 1.224646799147353207E-16, -1.000000000000000000 ) ) ;
#110 = ORIENTED_EDGE ( 'NONE', *, *, #69, .T. ) ;
#111 = CALENDAR_DATE ( 2021, 6, 10 ) ;
#112 = ORIENTED_EDGE ( 'NONE', *, *, #69, .F. ) ;
#113 = ORIENTED_EDGE ( 'NONE', *, *, #32, .F. ) ;
#114 = AXIS2_PLACEMENT_3D ( 'NONE', #192, #109, #169 ) ;
#115 = APPROVAL_PERSON_ORGANIZATION ( #171, #104, #198 ) ;
#116 = CARTESIAN_POINT ( 'NONE',  ( 1.710825856033135470E-13, 9.373498641636523836E-33, 49.00000000000000000 ) ) ;
#117 = PERSON_AND_ORGANIZATION_ROLE ( 'creator' ) ;
#118 = PERSON_AND_ORGANIZATION ( #93, #135 ) ;
#119 = PLANE ( 'NONE',  #157 ) ;
#120 = CIRCLE ( 'NONE', #131, 1.649999999999996581 ) ;
#121 = APPROVAL ( #140, 'UNSPECIFIED' ) ;
#122 = DIRECTION ( 'NONE',  ( 0.0000000000000000000, 0.0000000000000000000, 1.000000000000000000 ) ) ;
#123 = PRODUCT_DEFINITION_SHAPE ( 'NONE', 'NONE',  #126 ) ;
#124 = FACE_BOUND ( 'NONE', #43, .T. ) ;
#125 = ORIENTED_EDGE ( 'NONE', *, *, #22, .F. ) ;
#126 = PRODUCT_DEFINITION ( 'UNKNOWN', '', #40, #47 ) ;
#127 = DIRECTION ( 'NONE',  ( -4.275831445896958607E-31, -1.000000000000000000, -1.224646799147353207E-16 ) ) ;
#128 = DIRECTION ( 'NONE',  ( -3.491481338843133355E-15, 1.224646799147353207E-16, -1.000000000000000000 ) ) ;
#129 = APPROVAL_DATE_TIME ( #82, #121 ) ;
#130 = DIRECTION ( 'NONE',  ( 0.0000000000000000000, 1.000000000000000000, 0.0000000000000000000 ) ) ;
#131 = AXIS2_PLACEMENT_3D ( 'NONE', #28, #12, #178 ) ;
#132 = LOCAL_TIME ( 13, 20, 32.00000000000000000, #163 ) ;
#133 = SECURITY_CLASSIFICATION_LEVEL ( 'unclassified' ) ;
#134 = CIRCLE ( 'NONE', #114, 1.650000000000000133 ) ;
#135 = ORGANIZATION ( 'UNSPECIFIED', 'UNSPECIFIED', '' ) ;
#136 = DATE_AND_TIME ( #37, #51 ) ;
#137 = CARTESIAN_POINT ( 'NONE',  ( 1.696859930677762937E-13, 1.649999999999994360, 48.60000000000000142 ) ) ;
#138 = CYLINDRICAL_SURFACE ( 'NONE', #97, 1.649999999999995470 ) ;
#139 = CC_DESIGN_DATE_AND_TIME_ASSIGNMENT ( #23, #1, ( #126 ) ) ;
#140 = APPROVAL_STATUS ( 'not_yet_approved' ) ;
#141 = APPROVAL_STATUS ( 'not_yet_approved' ) ;
#142 = CARTESIAN_POINT ( 'NONE',  ( 6.284666409917640040E-14, 1.237301820696026779E-32, 18.00000000000000000 ) ) ;
#143 = CYLINDRICAL_SURFACE ( 'NONE', #41, 1.649999999999998357 ) ;
#144 = COORDINATED_UNIVERSAL_TIME_OFFSET ( 1, 0, .AHEAD. ) ;
#145 = DIRECTION ( 'NONE',  ( 4.275831445896958607E-31, 1.000000000000000000, 1.224646799147353207E-16 ) ) ;
#146 = CIRCLE ( 'NONE', #73, 1.250000000000000444 ) ;
#147 = SECURITY_CLASSIFICATION ( '', '', #133 ) ;
#148 = PRODUCT_RELATED_PRODUCT_CATEGORY ( 'detail', '', ( #88 ) ) ;
#149 = APPROVAL_PERSON_ORGANIZATION ( #70, #155, #165 ) ;
#150 = DIRECTION ( 'NONE',  ( -4.275831445896958607E-31, -1.000000000000000000, -1.224646799147353207E-16 ) ) ;
#151 = FACE_OUTER_BOUND ( 'NONE', #11, .T. ) ;
#152 = PERSON_AND_ORGANIZATION ( #93, #135 ) ;
#153 = APPLICATION_CONTEXT ( 'configuration controlled 3d designs of mechanical parts and assemblies' ) ;
#154 = DIRECTION ( 'NONE',  ( 0.0000000000000000000, 1.000000000000000000, 0.0000000000000000000 ) ) ;
#155 = APPROVAL ( #141, 'UNSPECIFIED' ) ;
#156 = DIRECTION ( 'NONE',  ( 3.491481338843133355E-15, -1.224646799147353207E-16, 1.000000000000000000 ) ) ;
#157 = AXIS2_PLACEMENT_3D ( 'NONE', #71, #103, #150 ) ;
#158 = CARTESIAN_POINT ( 'NONE',  ( 1.710825856033135470E-13, -6.000769315822030937E-15, 49.00000000000000000 ) ) ;
#159 = LOCAL_TIME ( 13, 20, 32.00000000000000000, #181 ) ;
#160 = ORIENTED_EDGE ( 'NONE', *, *, #22, .T. ) ;
#161 = PERSON_AND_ORGANIZATION ( #93, #135 ) ;
#162 = APPROVAL_STATUS ( 'not_yet_approved' ) ;
#163 = COORDINATED_UNIVERSAL_TIME_OFFSET ( 1, 0, .AHEAD. ) ;
#164 = LOCAL_TIME ( 13, 20, 32.00000000000000000, #18 ) ;
#165 = APPROVAL_ROLE ( '' ) ;
#166 = CARTESIAN_POINT ( 'NONE',  ( 2.686372402902930693E-15, 1.649999999999994360, 0.7694076359557553424 ) ) ;
#167 = CONICAL_SURFACE ( 'NONE', #29, 1.250000000000000444, 0.7853981633974510546 ) ;
#168 = CIRCLE ( 'NONE', #59, 1.649999999999996581 ) ;
#169 = DIRECTION ( 'NONE',  ( 0.0000000000000000000, 1.000000000000000000, 0.0000000000000000000 ) ) ;
#170 = DIRECTION ( 'NONE',  ( -3.491481338843133355E-15, 1.224646799147353207E-16, -1.000000000000000000 ) ) ;
#171 = PERSON_AND_ORGANIZATION ( #93, #135 ) ;
#172 = ORIENTED_EDGE ( 'NONE', *, *, #6, .T. ) ;
#173 = EDGE_LOOP ( 'NONE', ( #49 ) ) ;
#174 = CARTESIAN_POINT ( 'NONE',  ( 6.284666409917640040E-14, 1.649999999999994360, 18.00000000000000000 ) ) ;
#175 = CC_DESIGN_PERSON_AND_ORGANIZATION_ASSIGNMENT ( #188, #117, ( #126 ) ) ;
#176 = VERTEX_POINT ( 'NONE', #174 ) ;
#177 = ADVANCED_FACE ( 'NONE', ( #191, #151 ), #138, .T. ) ;
#178 = DIRECTION ( 'NONE',  ( 0.0000000000000000000, 1.000000000000000000, 0.0000000000000000000 ) ) ;
#179 = CLOSED_SHELL ( 'NONE', ( #72, #177, #96 ) ) ;
#180 = DIRECTION ( 'NONE',  ( -3.491481338843133355E-15, 1.224646799147353207E-16, -1.000000000000000000 ) ) ;
#181 = COORDINATED_UNIVERSAL_TIME_OFFSET ( 1, 0, .AHEAD. ) ;
#182 = CARTESIAN_POINT ( 'NONE',  ( 2.686372402902929904E-15, -9.422525986127474989E-17, 0.7694076359557551203 ) ) ;
#183 = PERSON_AND_ORGANIZATION ( #93, #135 ) ;
#184 = CC_DESIGN_PERSON_AND_ORGANIZATION_ASSIGNMENT ( #63, #48, ( #147 ) ) ;
#185 = DIRECTION ( 'NONE',  ( 3.491481338843133355E-15, -1.224646799147353207E-16, 1.000000000000000000 ) ) ;
#186 = FACE_OUTER_BOUND ( 'NONE', #35, .T. ) ;
#187 = CC_DESIGN_APPROVAL ( #104, ( #147 ) ) ;
#188 = PERSON_AND_ORGANIZATION ( #93, #135 ) ;
#189 = CARTESIAN_POINT ( 'NONE',  ( 0.0000000000000000000, 0.0000000000000000000, 0.0000000000000000000 ) ) ;
#190 = VERTEX_POINT ( 'NONE', #166 ) ;
#191 = FACE_OUTER_BOUND ( 'NONE', #80, .T. ) ;
#192 = CARTESIAN_POINT ( 'NONE',  ( 1.696859930677762937E-13, -5.951783443856137509E-15, 48.60000000000000142 ) ) ;
#193 = CARTESIAN_POINT ( 'NONE',  ( 0.0000000000000000000, 0.0000000000000000000, 0.0000000000000000000 ) ) ;
#194 = AXIS2_PLACEMENT_3D ( 'NONE', #182, #185, #64 ) ;
#195 = PERSON_AND_ORGANIZATION_ROLE ( 'design_supplier' ) ;
#196 = LOCAL_TIME ( 13, 20, 32.00000000000000000, #144 ) ;
#197 = FACE_OUTER_BOUND ( 'NONE', #83, .T. ) ;
#198 = APPROVAL_ROLE ( '' ) ;
#199 = CARTESIAN_POINT ( 'NONE',  ( 2.686372402902929904E-15, -9.422525986127474989E-17, 0.7694076359557551203 ) ) ;
#200 = APPROVAL_DATE_TIME ( #17, #104 ) ;
#201 = CARTESIAN_POINT ( 'NONE',  ( 6.284666409917640040E-14, -2.204364238465235428E-15, 18.00000000000000000 ) ) ;
#202 = AXIS2_PLACEMENT_3D ( 'NONE', #199, #180, #78 ) ;
#203 = ADVANCED_FACE ( 'NONE', ( #24 ), #119, .F. ) ;
ENDSEC;
END-ISO-10303-21;
