ISO-10303-21;
HEADER;
FILE_DESCRIPTION (( 'STEP AP203' ),
    '1' );
FILE_NAME ('55657.step',
    '2021-10-06T11:20:30',
    ( '' ),
    ( '' ),
    'SwSTEP 2.0',
    'SolidWorks 2019',
    '' );
FILE_SCHEMA (( 'CONFIG_CONTROL_DESIGN' ));
ENDSEC;

DATA;
#1 = DIRECTION ( 'NONE',  ( 4.275831445896958607E-31, 1.000000000000000000, 1.224646799147353207E-16 ) ) ;
#2 =( NAMED_UNIT ( * ) SI_UNIT ( $, .STERADIAN. ) SOLID_ANGLE_UNIT ( ) );
#3 = CC_DESIGN_APPROVAL ( #135, ( #171 ) ) ;
#4 = PRODUCT_DEFINITION_FORMATION_WITH_SPECIFIED_SOURCE ( 'ANY', '', #132, .NOT_KNOWN. ) ;
#5 = APPROVAL ( #11, 'UNSPECIFIED' ) ;
#6 = CC_DESIGN_PERSON_AND_ORGANIZATION_ASSIGNMENT ( #75, #78, ( #132 ) ) ;
#7 = MANIFOLD_SOLID_BREP ( 'Corps-Déplacer/Copier1[1]', #134 ) ;
#8 = CALENDAR_DATE ( 2021, 6, 10 ) ;
#9 = EDGE_LOOP ( 'NONE', ( #12 ) ) ;
#10 = COORDINATED_UNIVERSAL_TIME_OFFSET ( 1, 0, .AHEAD. ) ;
#11 = APPROVAL_STATUS ( 'not_yet_approved' ) ;
#12 = ORIENTED_EDGE ( 'NONE', *, *, #73, .F. ) ;
#13 = PERSON_AND_ORGANIZATION ( #156, #46 ) ;
#14 = PERSON_AND_ORGANIZATION ( #156, #46 ) ;
#15 = AXIS2_PLACEMENT_3D ( 'NONE', #91, #31, #80 ) ;
#16 = FACE_OUTER_BOUND ( 'NONE', #9, .T. ) ;
#17 = CARTESIAN_POINT ( 'NONE',  ( 0.0000000000000000000, 0.0000000000000000000, 0.0000000000000000000 ) ) ;
#18 = DIRECTION ( 'NONE',  ( -4.275831445896958607E-31, -1.000000000000000000, -1.224646799147353207E-16 ) ) ;
#19 = CC_DESIGN_PERSON_AND_ORGANIZATION_ASSIGNMENT ( #145, #79, ( #4 ) ) ;
#20 = FACE_OUTER_BOUND ( 'NONE', #149, .T. ) ;
#21 =( GEOMETRIC_REPRESENTATION_CONTEXT ( 3 ) GLOBAL_UNCERTAINTY_ASSIGNED_CONTEXT ( ( #48 ) ) GLOBAL_UNIT_ASSIGNED_CONTEXT ( ( #100, #188, #2 ) ) REPRESENTATION_CONTEXT ( 'NONE', 'WORKASPACE' ) );
#22 = CC_DESIGN_DATE_AND_TIME_ASSIGNMENT ( #194, #180, ( #171 ) ) ;
#23 = PERSON_AND_ORGANIZATION_ROLE ( 'classification_officer' ) ;
#24 = APPROVAL_PERSON_ORGANIZATION ( #14, #5, #88 ) ;
#25 = EDGE_LOOP ( 'NONE', ( #118 ) ) ;
#26 = CALENDAR_DATE ( 2021, 6, 10 ) ;
#27 = ADVANCED_FACE ( 'NONE', ( #66, #155 ), #55, .T. ) ;
#28 = APPROVAL_STATUS ( 'not_yet_approved' ) ;
#29 = AXIS2_PLACEMENT_3D ( 'NONE', #49, #120, #186 ) ;
#30 = CC_DESIGN_APPROVAL ( #200, ( #162 ) ) ;
#31 = DIRECTION ( 'NONE',  ( -3.491481338843133355E-15, 1.224646799147353207E-16, -1.000000000000000000 ) ) ;
#32 = PRODUCT_DEFINITION_SHAPE ( 'NONE', 'NONE',  #171 ) ;
#33 = DIRECTION ( 'NONE',  ( 3.491481338843133355E-15, -1.224646799147353207E-16, 1.000000000000000000 ) ) ;
#34 = ADVANCED_FACE ( 'NONE', ( #184 ), #112, .T. ) ;
#35 = FACE_OUTER_BOUND ( 'NONE', #175, .T. ) ;
#36 = CARTESIAN_POINT ( 'NONE',  ( 5.586370142149013368E-14, 1.499999999999994893, 16.00000000000000000 ) ) ;
#37 = ADVANCED_BREP_SHAPE_REPRESENTATION ( '55657', ( #7, #144, #103 ), #21 ) ;
#38 = ADVANCED_FACE ( 'NONE', ( #168 ), #64, .F. ) ;
#39 = APPLICATION_CONTEXT ( 'configuration controlled 3d designs of mechanical parts and assemblies' ) ;
#40 = PERSON_AND_ORGANIZATION_ROLE ( 'design_supplier' ) ;
#41 = AXIS2_PLACEMENT_3D ( 'NONE', #164, #92, #1 ) ;
#42 = APPROVAL_STATUS ( 'not_yet_approved' ) ;
#43 = PERSON_AND_ORGANIZATION ( #156, #46 ) ;
#44 = ORIENTED_EDGE ( 'NONE', *, *, #71, .T. ) ;
#45 = APPROVAL_ROLE ( '' ) ;
#46 = ORGANIZATION ( 'UNSPECIFIED', 'UNSPECIFIED', '' ) ;
#47 = ORIENTED_EDGE ( 'NONE', *, *, #203, .T. ) ;
#48 = UNCERTAINTY_MEASURE_WITH_UNIT (LENGTH_MEASURE( 1.000000000000000082E-05 ), #100, 'distance_accuracy_value', 'NONE');
#49 = CARTESIAN_POINT ( 'NONE',  ( 2.442156729911754494E-15, -8.565932714661340675E-17, 0.6994614872325046750 ) ) ;
#50 = VERTEX_POINT ( 'NONE', #108 ) ;
#51 = CIRCLE ( 'NONE', #56, 1.499999999999996669 ) ;
#52 = PERSON_AND_ORGANIZATION_ROLE ( 'creator' ) ;
#53 = DIRECTION ( 'NONE',  ( 3.491481338843133355E-15, -1.224646799147353207E-16, 1.000000000000000000 ) ) ;
#54 = DIRECTION ( 'NONE',  ( 0.0000000000000000000, 1.000000000000000000, 0.0000000000000000000 ) ) ;
#55 = CYLINDRICAL_SURFACE ( 'NONE', #169, 1.499999999999998668 ) ;
#56 = AXIS2_PLACEMENT_3D ( 'NONE', #121, #124, #54 ) ;
#57 = APPLICATION_CONTEXT ( 'configuration controlled 3d designs of mechanical parts and assemblies' ) ;
#58 = CALENDAR_DATE ( 2021, 6, 10 ) ;
#59 = PERSON_AND_ORGANIZATION ( #156, #46 ) ;
#60 = APPROVAL_DATE_TIME ( #173, #5 ) ;
#61 = CC_DESIGN_PERSON_AND_ORGANIZATION_ASSIGNMENT ( #59, #23, ( #162 ) ) ;
#62 = CARTESIAN_POINT ( 'NONE',  ( 0.0000000000000000000, 0.0000000000000000000, 0.0000000000000000000 ) ) ;
#63 = ORIENTED_EDGE ( 'NONE', *, *, #73, .T. ) ;
#64 = PLANE ( 'NONE',  #161 ) ;
#65 = DIRECTION ( 'NONE',  ( -3.491481338843133355E-15, 1.224646799147353207E-16, -1.000000000000000000 ) ) ;
#66 = FACE_OUTER_BOUND ( 'NONE', #151, .T. ) ;
#67 = ADVANCED_FACE ( 'NONE', ( #197 ), #143, .T. ) ;
#68 = CARTESIAN_POINT ( 'NONE',  ( 2.442156729911755283E-15, 1.499999999999994893, 0.6994614872325048971 ) ) ;
#69 = CLOSED_SHELL ( 'NONE', ( #67, #113, #34 ) ) ;
#70 = AXIS2_PLACEMENT_3D ( 'NONE', #137, #107, #166 ) ;
#71 = EDGE_CURVE ( 'NONE', #50, #50, #201, .T. ) ;
#72 = APPROVAL_PERSON_ORGANIZATION ( #13, #200, #190 ) ;
#73 = EDGE_CURVE ( 'NONE', #111, #111, #114, .T. ) ;
#74 = CC_DESIGN_APPROVAL ( #5, ( #4 ) ) ;
#75 = PERSON_AND_ORGANIZATION ( #156, #46 ) ;
#76 = EDGE_LOOP ( 'NONE', ( #159 ) ) ;
#77 = DATE_AND_TIME ( #58, #178 ) ;
#78 = PERSON_AND_ORGANIZATION_ROLE ( 'design_owner' ) ;
#79 = PERSON_AND_ORGANIZATION_ROLE ( 'creator' ) ;
#80 = DIRECTION ( 'NONE',  ( 0.0000000000000000000, 1.000000000000000000, 0.0000000000000000000 ) ) ;
#81 = CYLINDRICAL_SURFACE ( 'NONE', #93, 1.499999999999995781 ) ;
#82 = VERTEX_POINT ( 'NONE', #142 ) ;
#83 = ORIENTED_EDGE ( 'NONE', *, *, #71, .F. ) ;
#84 = DIRECTION ( 'NONE',  ( 3.491481338843133355E-15, -1.224646799147353207E-16, 1.000000000000000000 ) ) ;
#85 = LOCAL_TIME ( 13, 20, 30.00000000000000000, #109 ) ;
#86 = EDGE_CURVE ( 'NONE', #153, #153, #129, .T. ) ;
#87 = MECHANICAL_CONTEXT ( 'NONE', #39, 'mechanical' ) ;
#88 = APPROVAL_ROLE ( '' ) ;
#89 = CC_DESIGN_PERSON_AND_ORGANIZATION_ASSIGNMENT ( #150, #52, ( #171 ) ) ;
#90 = CC_DESIGN_DATE_AND_TIME_ASSIGNMENT ( #106, #160, ( #162 ) ) ;
#91 = CARTESIAN_POINT ( 'NONE',  ( 5.586370142149013368E-14, -1.959434878635765131E-15, 16.00000000000000000 ) ) ;
#92 = DIRECTION ( 'NONE',  ( -3.491481338843133355E-15, 1.224646799147353207E-16, -1.000000000000000000 ) ) ;
#93 = AXIS2_PLACEMENT_3D ( 'NONE', #154, #138, #136 ) ;
#94 = LOCAL_TIME ( 13, 20, 30.00000000000000000, #116 ) ;
#95 = DIRECTION ( 'NONE',  ( -4.275831445896958607E-31, -1.000000000000000000, -1.224646799147353207E-16 ) ) ;
#96 = DESIGN_CONTEXT ( 'detailed design', #57, 'design' ) ;
#97 = DIRECTION ( 'NONE',  ( 0.0000000000000000000, 1.000000000000000000, 0.0000000000000000000 ) ) ;
#98 = DIRECTION ( 'NONE',  ( -3.491481338843133355E-15, 1.224646799147353207E-16, -1.000000000000000000 ) ) ;
#99 = CC_DESIGN_PERSON_AND_ORGANIZATION_ASSIGNMENT ( #43, #40, ( #4 ) ) ;
#100 =( LENGTH_UNIT ( ) NAMED_UNIT ( * ) SI_UNIT ( .MILLI., .METRE. ) );
#101 = ADVANCED_FACE ( 'NONE', ( #141 ), #133, .F. ) ;
#102 = AXIS2_PLACEMENT_3D ( 'NONE', #181, #33, #18 ) ;
#103 = AXIS2_PLACEMENT_3D ( 'NONE', #62, #104, #128 ) ;
#104 = DIRECTION ( 'NONE',  ( 0.0000000000000000000, 0.0000000000000000000, 1.000000000000000000 ) ) ;
#105 = SECURITY_CLASSIFICATION_LEVEL ( 'unclassified' ) ;
#106 = DATE_AND_TIME ( #8, #119 ) ;
#107 = DIRECTION ( 'NONE',  ( -3.491481338843133355E-15, 1.224646799147353207E-16, -1.000000000000000000 ) ) ;
#108 = CARTESIAN_POINT ( 'NONE',  ( 5.586370142149013368E-14, 1.499999999999994893, 16.00000000000000000 ) ) ;
#109 = COORDINATED_UNIVERSAL_TIME_OFFSET ( 1, 0, .AHEAD. ) ;
#110 = CARTESIAN_POINT ( 'NONE',  ( 2.442156729911754494E-15, -8.565932714661340675E-17, 0.6994614872325046750 ) ) ;
#111 = VERTEX_POINT ( 'NONE', #68 ) ;
#112 = PLANE ( 'NONE',  #102 ) ;
#113 = ADVANCED_FACE ( 'NONE', ( #16, #20 ), #81, .T. ) ;
#114 = CIRCLE ( 'NONE', #29, 1.499999999999994893 ) ;
#115 = ORIENTED_EDGE ( 'NONE', *, *, #183, .F. ) ;
#116 = COORDINATED_UNIVERSAL_TIME_OFFSET ( 1, 0, .AHEAD. ) ;
#117 = SHAPE_DEFINITION_REPRESENTATION ( #32, #37 ) ;
#118 = ORIENTED_EDGE ( 'NONE', *, *, #86, .F. ) ;
#119 = LOCAL_TIME ( 13, 20, 30.00000000000000000, #10 ) ;
#120 = DIRECTION ( 'NONE',  ( -3.491481338843133355E-15, 1.224646799147353207E-16, -1.000000000000000000 ) ) ;
#121 = CARTESIAN_POINT ( 'NONE',  ( 5.586370142149013368E-14, -1.959434878635765131E-15, 16.00000000000000000 ) ) ;
#122 = CARTESIAN_POINT ( 'NONE',  ( 5.586370142149013368E-14, 1.124819836996388006E-32, 16.00000000000000000 ) ) ;
#123 = DIRECTION ( 'NONE',  ( 4.275831445896958607E-31, 1.000000000000000000, 1.224646799147353207E-16 ) ) ;
#124 = DIRECTION ( 'NONE',  ( -3.491481338843133355E-15, 1.224646799147353207E-16, -1.000000000000000000 ) ) ;
#125 = AXIS2_PLACEMENT_3D ( 'NONE', #110, #84, #152 ) ;
#126 = COORDINATED_UNIVERSAL_TIME_OFFSET ( 1, 0, .AHEAD. ) ;
#127 = EDGE_LOOP ( 'NONE', ( #115 ) ) ;
#128 = DIRECTION ( 'NONE',  ( 1.000000000000000000, 0.0000000000000000000, 0.0000000000000000000 ) ) ;
#129 = CIRCLE ( 'NONE', #70, 1.100000000000000533 ) ;
#130 = CALENDAR_DATE ( 2021, 6, 10 ) ;
#131 = APPLICATION_PROTOCOL_DEFINITION ( 'international standard', 'config_control_design', 1994, #57 ) ;
#132 = PRODUCT ( '55657', '55657', '', ( #87 ) ) ;
#133 = PLANE ( 'NONE',  #41 ) ;
#134 = CLOSED_SHELL ( 'NONE', ( #38, #27, #157, #101 ) ) ;
#135 = APPROVAL ( #42, 'UNSPECIFIED' ) ;
#136 = DIRECTION ( 'NONE',  ( 4.275831445896958607E-31, 1.000000000000000000, 1.224646799147353207E-16 ) ) ;
#137 = CARTESIAN_POINT ( 'NONE',  ( 1.606081415867841091E-13, -5.633375276077824704E-15, 46.00000000000000000 ) ) ;
#138 = DIRECTION ( 'NONE',  ( -3.491481338843133355E-15, 1.224646799147353207E-16, -1.000000000000000000 ) ) ;
#139 = AXIS2_PLACEMENT_3D ( 'NONE', #198, #65, #202 ) ;
#140 = CC_DESIGN_SECURITY_CLASSIFICATION ( #162, ( #4 ) ) ;
#141 = FACE_OUTER_BOUND ( 'NONE', #25, .T. ) ;
#142 = CARTESIAN_POINT ( 'NONE',  ( 1.592115490512469062E-13, 1.499999999999994893, 45.60000000000000142 ) ) ;
#143 = CONICAL_SURFACE ( 'NONE', #125, 1.499999999999994893, 1.134464013796309123 ) ;
#144 = MANIFOLD_SOLID_BREP ( 'Corps-Déplacer/Copier1[2]', #69 ) ;
#145 = PERSON_AND_ORGANIZATION ( #156, #46 ) ;
#146 = EDGE_LOOP ( 'NONE', ( #47 ) ) ;
#147 = CALENDAR_DATE ( 2021, 6, 10 ) ;
#148 = DATE_AND_TIME ( #26, #189 ) ;
#149 = EDGE_LOOP ( 'NONE', ( #179 ) ) ;
#150 = PERSON_AND_ORGANIZATION ( #156, #46 ) ;
#151 = EDGE_LOOP ( 'NONE', ( #83 ) ) ;
#152 = DIRECTION ( 'NONE',  ( -5.135813185032646166E-31, -1.000000000000000000, -1.445602896647344094E-16 ) ) ;
#153 = VERTEX_POINT ( 'NONE', #167 ) ;
#154 = CARTESIAN_POINT ( 'NONE',  ( 0.0000000000000000000, 0.0000000000000000000, 0.0000000000000000000 ) ) ;
#155 = FACE_OUTER_BOUND ( 'NONE', #146, .T. ) ;
#156 = PERSON ( 'UNSPECIFIED', 'UNSPECIFIED', 'UNSPECIFIED', ('UNSPECIFIED'), ('UNSPECIFIED'), ('UNSPECIFIED') ) ;
#157 = ADVANCED_FACE ( 'NONE', ( #35, #199 ), #174, .T. ) ;
#158 = APPLICATION_PROTOCOL_DEFINITION ( 'international standard', 'config_control_design', 1994, #39 ) ;
#159 = ORIENTED_EDGE ( 'NONE', *, *, #86, .T. ) ;
#160 = DATE_TIME_ROLE ( 'classification_date' ) ;
#161 = AXIS2_PLACEMENT_3D ( 'NONE', #122, #53, #95 ) ;
#162 = SECURITY_CLASSIFICATION ( '', '', #105 ) ;
#163 = APPROVAL_DATE_TIME ( #148, #135 ) ;
#164 = CARTESIAN_POINT ( 'NONE',  ( 1.606081415867841091E-13, 8.248678804640136104E-33, 46.00000000000000000 ) ) ;
#165 = CARTESIAN_POINT ( 'NONE',  ( 1.592115490512469062E-13, -5.584389404111930487E-15, 45.60000000000000142 ) ) ;
#166 = DIRECTION ( 'NONE',  ( 0.0000000000000000000, 1.000000000000000000, 0.0000000000000000000 ) ) ;
#167 = CARTESIAN_POINT ( 'NONE',  ( 1.606081415867841091E-13, 1.099999999999994760, 46.00000000000000000 ) ) ;
#168 = FACE_OUTER_BOUND ( 'NONE', #172, .T. ) ;
#169 = AXIS2_PLACEMENT_3D ( 'NONE', #17, #98, #123 ) ;
#170 = PRODUCT_RELATED_PRODUCT_CATEGORY ( 'detail', '', ( #132 ) ) ;
#171 = PRODUCT_DEFINITION ( 'UNKNOWN', '', #4, #96 ) ;
#172 = EDGE_LOOP ( 'NONE', ( #44 ) ) ;
#173 = DATE_AND_TIME ( #147, #85 ) ;
#174 = CONICAL_SURFACE ( 'NONE', #139, 1.100000000000000533, 0.7853981633974512766 ) ;
#175 = EDGE_LOOP ( 'NONE', ( #177 ) ) ;
#176 = PERSON_AND_ORGANIZATION ( #156, #46 ) ;
#177 = ORIENTED_EDGE ( 'NONE', *, *, #203, .F. ) ;
#178 = LOCAL_TIME ( 13, 20, 30.00000000000000000, #192 ) ;
#179 = ORIENTED_EDGE ( 'NONE', *, *, #183, .T. ) ;
#180 = DATE_TIME_ROLE ( 'creation_date' ) ;
#181 = CARTESIAN_POINT ( 'NONE',  ( 5.586370142149013368E-14, 1.124819836996388006E-32, 16.00000000000000000 ) ) ;
#182 = DIRECTION ( 'NONE',  ( -3.491481338843133355E-15, 1.224646799147353207E-16, -1.000000000000000000 ) ) ;
#183 = EDGE_CURVE ( 'NONE', #187, #187, #51, .T. ) ;
#184 = FACE_OUTER_BOUND ( 'NONE', #127, .T. ) ;
#185 = CIRCLE ( 'NONE', #193, 1.500000000000000444 ) ;
#186 = DIRECTION ( 'NONE',  ( 5.135813185032646166E-31, 1.000000000000000000, 1.445602896647344094E-16 ) ) ;
#187 = VERTEX_POINT ( 'NONE', #36 ) ;
#188 =( NAMED_UNIT ( * ) PLANE_ANGLE_UNIT ( ) SI_UNIT ( $, .RADIAN. ) );
#189 = LOCAL_TIME ( 13, 20, 30.00000000000000000, #126 ) ;
#190 = APPROVAL_ROLE ( '' ) ;
#191 = EDGE_LOOP ( 'NONE', ( #63 ) ) ;
#192 = COORDINATED_UNIVERSAL_TIME_OFFSET ( 1, 0, .AHEAD. ) ;
#193 = AXIS2_PLACEMENT_3D ( 'NONE', #165, #182, #97 ) ;
#194 = DATE_AND_TIME ( #130, #94 ) ;
#195 = APPROVAL_DATE_TIME ( #77, #200 ) ;
#196 = APPROVAL_PERSON_ORGANIZATION ( #176, #135, #45 ) ;
#197 = FACE_OUTER_BOUND ( 'NONE', #191, .T. ) ;
#198 = CARTESIAN_POINT ( 'NONE',  ( 1.606081415867841091E-13, -5.633375276077824704E-15, 46.00000000000000000 ) ) ;
#199 = FACE_BOUND ( 'NONE', #76, .T. ) ;
#200 = APPROVAL ( #28, 'UNSPECIFIED' ) ;
#201 = CIRCLE ( 'NONE', #15, 1.499999999999996669 ) ;
#202 = DIRECTION ( 'NONE',  ( 0.0000000000000000000, 1.000000000000000000, 0.0000000000000000000 ) ) ;
#203 = EDGE_CURVE ( 'NONE', #82, #82, #185, .T. ) ;
ENDSEC;
END-ISO-10303-21;
