ISO-10303-21;
HEADER;
FILE_DESCRIPTION (( 'STEP AP203' ),
    '1' );
FILE_NAME ('55655.step',
    '2021-10-06T11:20:27',
    ( '' ),
    ( '' ),
    'SwSTEP 2.0',
    'SolidWorks 2019',
    '' );
FILE_SCHEMA (( 'CONFIG_CONTROL_DESIGN' ));
ENDSEC;

DATA;
#1 = ADVANCED_FACE ( 'NONE', ( #188 ), #170, .T. ) ;
#2 = DIRECTION ( 'NONE',  ( -3.491481338843133355E-15, 1.224646799147353207E-16, -1.000000000000000000 ) ) ;
#3 = MANIFOLD_SOLID_BREP ( 'Corps-Déplacer/Copier1[2]', #10 ) ;
#4 = MANIFOLD_SOLID_BREP ( 'Corps-Déplacer/Copier1[1]', #101 ) ;
#5 = FACE_OUTER_BOUND ( 'NONE', #34, .T. ) ;
#6 = LOCAL_TIME ( 13, 20, 27.00000000000000000, #184 ) ;
#7 = CC_DESIGN_DATE_AND_TIME_ASSIGNMENT ( #112, #62, ( #26 ) ) ;
#8 = DIRECTION ( 'NONE',  ( 3.491481338843133355E-15, -1.224646799147353207E-16, 1.000000000000000000 ) ) ;
#9 = VERTEX_POINT ( 'NONE', #75 ) ;
#10 = CLOSED_SHELL ( 'NONE', ( #72, #41, #1 ) ) ;
#11 = CONICAL_SURFACE ( 'NONE', #39, 1.000000000000000000, 0.7853981633974453924 ) ;
#12 = CARTESIAN_POINT ( 'NONE',  ( 1.490862531686017753E-13, 1.299999999999994715, 42.69999999999999574 ) ) ;
#13 = PERSON_AND_ORGANIZATION_ROLE ( 'design_owner' ) ;
#14 = CIRCLE ( 'NONE', #176, 1.299999999999996714 ) ;
#15 = APPROVAL_DATE_TIME ( #32, #115 ) ;
#16 = SHAPE_DEFINITION_REPRESENTATION ( #134, #78 ) ;
#17 = DESIGN_CONTEXT ( 'detailed design', #98, 'design' ) ;
#18 = PERSON_AND_ORGANIZATION_ROLE ( 'design_supplier' ) ;
#19 = CIRCLE ( 'NONE', #102, 1.299999999999996714 ) ;
#20 = DATE_AND_TIME ( #166, #117 ) ;
#21 = DIRECTION ( 'NONE',  ( -2.962969145211144107E-31, -1.000000000000000000, -8.340016711426991034E-17 ) ) ;
#22 = EDGE_LOOP ( 'NONE', ( #87 ) ) ;
#23 = EDGE_LOOP ( 'NONE', ( #163 ) ) ;
#24 = FACE_OUTER_BOUND ( 'NONE', #22, .T. ) ;
#25 = CARTESIAN_POINT ( 'NONE',  ( 1.490862531686017753E-13, -5.229241832359197610E-15, 42.69999999999999574 ) ) ;
#26 = SECURITY_CLASSIFICATION ( '', '', #200 ) ;
#27 = CC_DESIGN_DATE_AND_TIME_ASSIGNMENT ( #81, #169, ( #185 ) ) ;
#28 = DIRECTION ( 'NONE',  ( 0.0000000000000000000, 1.000000000000000000, 0.0000000000000000000 ) ) ;
#29 = FACE_BOUND ( 'NONE', #86, .T. ) ;
#30 = COORDINATED_UNIVERSAL_TIME_OFFSET ( 1, 0, .AHEAD. ) ;
#31 = EDGE_CURVE ( 'NONE', #90, #90, #151, .T. ) ;
#32 = DATE_AND_TIME ( #187, #6 ) ;
#33 = DIRECTION ( 'NONE',  ( 4.275831445896958607E-31, 1.000000000000000000, 1.224646799147353207E-16 ) ) ;
#34 = EDGE_LOOP ( 'NONE', ( #190 ) ) ;
#35 = AXIS2_PLACEMENT_3D ( 'NONE', #70, #133, #73 ) ;
#36 = PRODUCT_DEFINITION_FORMATION_WITH_SPECIFIED_SOURCE ( 'ANY', '', #96, .NOT_KNOWN. ) ;
#37 = FACE_OUTER_BOUND ( 'NONE', #23, .T. ) ;
#38 = ORIENTED_EDGE ( 'NONE', *, *, #31, .T. ) ;
#39 = AXIS2_PLACEMENT_3D ( 'NONE', #149, #123, #40 ) ;
#40 = DIRECTION ( 'NONE',  ( 0.0000000000000000000, 1.000000000000000000, 0.0000000000000000000 ) ) ;
#41 = ADVANCED_FACE ( 'NONE', ( #24, #50 ), #118, .T. ) ;
#42 = FACE_OUTER_BOUND ( 'NONE', #116, .T. ) ;
#43 = DIRECTION ( 'NONE',  ( 0.0000000000000000000, 0.0000000000000000000, 1.000000000000000000 ) ) ;
#44 = PLANE ( 'NONE',  #76 ) ;
#45 = COORDINATED_UNIVERSAL_TIME_OFFSET ( 1, 0, .AHEAD. ) ;
#46 = PERSON_AND_ORGANIZATION ( #122, #141 ) ;
#47 = ADVANCED_FACE ( 'NONE', ( #5, #37 ), #194, .T. ) ;
#48 = PERSON_AND_ORGANIZATION ( #122, #141 ) ;
#49 = APPROVAL_PERSON_ORGANIZATION ( #186, #143, #93 ) ;
#50 = FACE_OUTER_BOUND ( 'NONE', #105, .T. ) ;
#51 = DIRECTION ( 'NONE',  ( -3.491481338843133355E-15, 1.224646799147353207E-16, -1.000000000000000000 ) ) ;
#52 = CARTESIAN_POINT ( 'NONE',  ( 1.501336975702547217E-13, -5.265981236333618470E-15, 43.00000000000000000 ) ) ;
#53 = AXIS2_PLACEMENT_3D ( 'NONE', #189, #51, #173 ) ;
#54 = DIRECTION ( 'NONE',  ( -3.491481338843133355E-15, 1.224646799147353207E-16, -1.000000000000000000 ) ) ;
#55 = FACE_OUTER_BOUND ( 'NONE', #132, .T. ) ;
#56 = CARTESIAN_POINT ( 'NONE',  ( 1.501336975702547217E-13, 0.9999999999999947820, 43.00000000000000000 ) ) ;
#57 = CARTESIAN_POINT ( 'NONE',  ( 5.586370142149013368E-14, -1.959434878635765131E-15, 16.00000000000000000 ) ) ;
#58 = DIRECTION ( 'NONE',  ( -3.491481338843133355E-15, 1.224646799147353207E-16, -1.000000000000000000 ) ) ;
#59 = CARTESIAN_POINT ( 'NONE',  ( 0.0000000000000000000, 0.0000000000000000000, 0.0000000000000000000 ) ) ;
#60 = APPROVAL_ROLE ( '' ) ;
#61 = PERSON_AND_ORGANIZATION ( #122, #141 ) ;
#62 = DATE_TIME_ROLE ( 'classification_date' ) ;
#63 = AXIS2_PLACEMENT_3D ( 'NONE', #52, #2, #135 ) ;
#64 = AXIS2_PLACEMENT_3D ( 'NONE', #59, #43, #108 ) ;
#65 = CC_DESIGN_PERSON_AND_ORGANIZATION_ASSIGNMENT ( #144, #130, ( #185 ) ) ;
#66 = PERSON_AND_ORGANIZATION ( #122, #141 ) ;
#67 = CC_DESIGN_APPROVAL ( #143, ( #26 ) ) ;
#68 = ORIENTED_EDGE ( 'NONE', *, *, #31, .F. ) ;
#69 = CC_DESIGN_PERSON_AND_ORGANIZATION_ASSIGNMENT ( #46, #142, ( #36 ) ) ;
#70 = CARTESIAN_POINT ( 'NONE',  ( 5.586370142149013368E-14, 9.748438587302021081E-33, 16.00000000000000000 ) ) ;
#71 = ORIENTED_EDGE ( 'NONE', *, *, #147, .F. ) ;
#72 = ADVANCED_FACE ( 'NONE', ( #164 ), #125, .T. ) ;
#73 = DIRECTION ( 'NONE',  ( -4.275831445896958607E-31, -1.000000000000000000, -1.224646799147353207E-16 ) ) ;
#74 = DIRECTION ( 'NONE',  ( -3.491481338843133355E-15, 1.224646799147353207E-16, -1.000000000000000000 ) ) ;
#75 = CARTESIAN_POINT ( 'NONE',  ( 5.586370142149013368E-14, 1.299999999999994715, 16.00000000000000000 ) ) ;
#76 = AXIS2_PLACEMENT_3D ( 'NONE', #77, #8, #178 ) ;
#77 = CARTESIAN_POINT ( 'NONE',  ( 5.586370142149013368E-14, 9.748438587302021081E-33, 16.00000000000000000 ) ) ;
#78 = ADVANCED_BREP_SHAPE_REPRESENTATION ( '55655', ( #4, #3, #64 ), #129 ) ;
#79 = APPLICATION_PROTOCOL_DEFINITION ( 'international standard', 'config_control_design', 1994, #98 ) ;
#80 = ADVANCED_FACE ( 'NONE', ( #55 ), #175, .F. ) ;
#81 = DATE_AND_TIME ( #167, #131 ) ;
#82 = AXIS2_PLACEMENT_3D ( 'NONE', #25, #119, #124 ) ;
#83 = EDGE_LOOP ( 'NONE', ( #174 ) ) ;
#84 = ADVANCED_FACE ( 'NONE', ( #150, #29 ), #11, .T. ) ;
#85 = ORIENTED_EDGE ( 'NONE', *, *, #162, .T. ) ;
#86 = EDGE_LOOP ( 'NONE', ( #38 ) ) ;
#87 = ORIENTED_EDGE ( 'NONE', *, *, #172, .F. ) ;
#88 = ORIENTED_EDGE ( 'NONE', *, *, #172, .T. ) ;
#89 =( LENGTH_UNIT ( ) NAMED_UNIT ( * ) SI_UNIT ( .MILLI., .METRE. ) );
#90 = VERTEX_POINT ( 'NONE', #56 ) ;
#91 = MECHANICAL_CONTEXT ( 'NONE', #114, 'mechanical' ) ;
#92 = CC_DESIGN_SECURITY_CLASSIFICATION ( #26, ( #36 ) ) ;
#93 = APPROVAL_ROLE ( '' ) ;
#94 = APPROVAL_ROLE ( '' ) ;
#95 = APPROVAL_STATUS ( 'not_yet_approved' ) ;
#96 = PRODUCT ( '55655', '55655', '', ( #91 ) ) ;
#97 = APPROVAL_DATE_TIME ( #128, #143 ) ;
#98 = APPLICATION_CONTEXT ( 'configuration controlled 3d designs of mechanical parts and assemblies' ) ;
#99 = CARTESIAN_POINT ( 'NONE',  ( 2.116535832590186360E-15, -7.423808352706492458E-17, 0.6061999556015037482 ) ) ;
#100 = EDGE_CURVE ( 'NONE', #154, #154, #14, .T. ) ;
#101 = CLOSED_SHELL ( 'NONE', ( #168, #47, #84, #80 ) ) ;
#102 = AXIS2_PLACEMENT_3D ( 'NONE', #57, #180, #28 ) ;
#103 = APPROVAL ( #198, 'UNSPECIFIED' ) ;
#104 = DIRECTION ( 'NONE',  ( 4.275831445896958607E-31, 1.000000000000000000, 1.224646799147352961E-16 ) ) ;
#105 = EDGE_LOOP ( 'NONE', ( #171 ) ) ;
#106 = VERTEX_POINT ( 'NONE', #12 ) ;
#107 =( NAMED_UNIT ( * ) SI_UNIT ( $, .STERADIAN. ) SOLID_ANGLE_UNIT ( ) );
#108 = DIRECTION ( 'NONE',  ( 1.000000000000000000, 0.0000000000000000000, 0.0000000000000000000 ) ) ;
#109 = COORDINATED_UNIVERSAL_TIME_OFFSET ( 1, 0, .AHEAD. ) ;
#110 = PERSON_AND_ORGANIZATION_ROLE ( 'classification_officer' ) ;
#111 = AXIS2_PLACEMENT_3D ( 'NONE', #195, #74, #121 ) ;
#112 = DATE_AND_TIME ( #182, #199 ) ;
#113 = CC_DESIGN_PERSON_AND_ORGANIZATION_ASSIGNMENT ( #181, #13, ( #96 ) ) ;
#114 = APPLICATION_CONTEXT ( 'configuration controlled 3d designs of mechanical parts and assemblies' ) ;
#115 = APPROVAL ( #156, 'UNSPECIFIED' ) ;
#116 = EDGE_LOOP ( 'NONE', ( #85 ) ) ;
#117 = LOCAL_TIME ( 13, 20, 27.00000000000000000, #109 ) ;
#118 = CYLINDRICAL_SURFACE ( 'NONE', #201, 1.299999999999995604 ) ;
#119 = DIRECTION ( 'NONE',  ( -3.491481338843133355E-15, 1.224646799147353207E-16, -1.000000000000000000 ) ) ;
#120 = APPROVAL_PERSON_ORGANIZATION ( #137, #103, #60 ) ;
#121 = DIRECTION ( 'NONE',  ( 2.962969145211144107E-31, 1.000000000000000000, 8.340016711426991034E-17 ) ) ;
#122 = PERSON ( 'UNSPECIFIED', 'UNSPECIFIED', 'UNSPECIFIED', ('UNSPECIFIED'), ('UNSPECIFIED'), ('UNSPECIFIED') ) ;
#123 = DIRECTION ( 'NONE',  ( -3.491481338843133355E-15, 1.224646799147353207E-16, -1.000000000000000000 ) ) ;
#124 = DIRECTION ( 'NONE',  ( 0.0000000000000000000, 1.000000000000000000, 0.0000000000000000000 ) ) ;
#125 = CONICAL_SURFACE ( 'NONE', #160, 1.299999999999994715, 1.134464013796309123 ) ;
#126 = DIRECTION ( 'NONE',  ( 0.0000000000000000000, 1.000000000000000000, 0.0000000000000000000 ) ) ;
#127 = APPROVAL_DATE_TIME ( #20, #103 ) ;
#128 = DATE_AND_TIME ( #158, #196 ) ;
#129 =( GEOMETRIC_REPRESENTATION_CONTEXT ( 3 ) GLOBAL_UNCERTAINTY_ASSIGNED_CONTEXT ( ( #183 ) ) GLOBAL_UNIT_ASSIGNED_CONTEXT ( ( #89, #138, #107 ) ) REPRESENTATION_CONTEXT ( 'NONE', 'WORKASPACE' ) );
#130 = PERSON_AND_ORGANIZATION_ROLE ( 'creator' ) ;
#131 = LOCAL_TIME ( 13, 20, 27.00000000000000000, #45 ) ;
#132 = EDGE_LOOP ( 'NONE', ( #68 ) ) ;
#133 = DIRECTION ( 'NONE',  ( 3.491481338843133355E-15, -1.224646799147353207E-16, 1.000000000000000000 ) ) ;
#134 = PRODUCT_DEFINITION_SHAPE ( 'NONE', 'NONE',  #185 ) ;
#135 = DIRECTION ( 'NONE',  ( 0.0000000000000000000, 1.000000000000000000, 0.0000000000000000000 ) ) ;
#136 = DIRECTION ( 'NONE',  ( -3.491481338843133355E-15, 1.224646799147353207E-16, -1.000000000000000000 ) ) ;
#137 = PERSON_AND_ORGANIZATION ( #122, #141 ) ;
#138 =( NAMED_UNIT ( * ) PLANE_ANGLE_UNIT ( ) SI_UNIT ( $, .RADIAN. ) );
#139 = CIRCLE ( 'NONE', #82, 1.300000000000000044 ) ;
#140 = CARTESIAN_POINT ( 'NONE',  ( 5.586370142149013368E-14, -1.959434878635765131E-15, 16.00000000000000000 ) ) ;
#141 = ORGANIZATION ( 'UNSPECIFIED', 'UNSPECIFIED', '' ) ;
#142 = PERSON_AND_ORGANIZATION_ROLE ( 'creator' ) ;
#143 = APPROVAL ( #95, 'UNSPECIFIED' ) ;
#144 = PERSON_AND_ORGANIZATION ( #122, #141 ) ;
#145 = AXIS2_PLACEMENT_3D ( 'NONE', #192, #54, #104 ) ;
#146 = CARTESIAN_POINT ( 'NONE',  ( 0.0000000000000000000, 0.0000000000000000000, 0.0000000000000000000 ) ) ;
#147 = EDGE_CURVE ( 'NONE', #106, #106, #139, .T. ) ;
#148 = EDGE_LOOP ( 'NONE', ( #88 ) ) ;
#149 = CARTESIAN_POINT ( 'NONE',  ( 1.501336975702547217E-13, -5.265981236333618470E-15, 43.00000000000000000 ) ) ;
#150 = FACE_OUTER_BOUND ( 'NONE', #161, .T. ) ;
#151 = CIRCLE ( 'NONE', #63, 1.000000000000000000 ) ;
#152 = CARTESIAN_POINT ( 'NONE',  ( 2.116535832590186755E-15, 1.299999999999994715, 0.6061999556015038593 ) ) ;
#153 = APPROVAL_PERSON_ORGANIZATION ( #48, #115, #94 ) ;
#154 = VERTEX_POINT ( 'NONE', #197 ) ;
#155 = CIRCLE ( 'NONE', #111, 1.299999999999994715 ) ;
#156 = APPROVAL_STATUS ( 'not_yet_approved' ) ;
#157 = COORDINATED_UNIVERSAL_TIME_OFFSET ( 1, 0, .AHEAD. ) ;
#158 = CALENDAR_DATE ( 2021, 6, 10 ) ;
#159 = DIRECTION ( 'NONE',  ( 3.491481338843133355E-15, -1.224646799147353207E-16, 1.000000000000000000 ) ) ;
#160 = AXIS2_PLACEMENT_3D ( 'NONE', #99, #159, #21 ) ;
#161 = EDGE_LOOP ( 'NONE', ( #71 ) ) ;
#162 = EDGE_CURVE ( 'NONE', #9, #9, #19, .T. ) ;
#163 = ORIENTED_EDGE ( 'NONE', *, *, #147, .T. ) ;
#164 = FACE_OUTER_BOUND ( 'NONE', #148, .T. ) ;
#165 = APPLICATION_PROTOCOL_DEFINITION ( 'international standard', 'config_control_design', 1994, #114 ) ;
#166 = CALENDAR_DATE ( 2021, 6, 10 ) ;
#167 = CALENDAR_DATE ( 2021, 6, 10 ) ;
#168 = ADVANCED_FACE ( 'NONE', ( #42 ), #44, .F. ) ;
#169 = DATE_TIME_ROLE ( 'creation_date' ) ;
#170 = PLANE ( 'NONE',  #35 ) ;
#171 = ORIENTED_EDGE ( 'NONE', *, *, #100, .T. ) ;
#172 = EDGE_CURVE ( 'NONE', #179, #179, #155, .T. ) ;
#173 = DIRECTION ( 'NONE',  ( 4.275831445896958607E-31, 1.000000000000000000, 1.224646799147353207E-16 ) ) ;
#174 = ORIENTED_EDGE ( 'NONE', *, *, #100, .F. ) ;
#175 = PLANE ( 'NONE',  #53 ) ;
#176 = AXIS2_PLACEMENT_3D ( 'NONE', #140, #58, #126 ) ;
#177 = PRODUCT_RELATED_PRODUCT_CATEGORY ( 'detail', '', ( #96 ) ) ;
#178 = DIRECTION ( 'NONE',  ( -4.275831445896958607E-31, -1.000000000000000000, -1.224646799147353207E-16 ) ) ;
#179 = VERTEX_POINT ( 'NONE', #152 ) ;
#180 = DIRECTION ( 'NONE',  ( -3.491481338843133355E-15, 1.224646799147353207E-16, -1.000000000000000000 ) ) ;
#181 = PERSON_AND_ORGANIZATION ( #122, #141 ) ;
#182 = CALENDAR_DATE ( 2021, 6, 10 ) ;
#183 = UNCERTAINTY_MEASURE_WITH_UNIT (LENGTH_MEASURE( 1.000000000000000082E-05 ), #89, 'distance_accuracy_value', 'NONE');
#184 = COORDINATED_UNIVERSAL_TIME_OFFSET ( 1, 0, .AHEAD. ) ;
#185 = PRODUCT_DEFINITION ( 'UNKNOWN', '', #36, #17 ) ;
#186 = PERSON_AND_ORGANIZATION ( #122, #141 ) ;
#187 = CALENDAR_DATE ( 2021, 6, 10 ) ;
#188 = FACE_OUTER_BOUND ( 'NONE', #83, .T. ) ;
#189 = CARTESIAN_POINT ( 'NONE',  ( 1.501336975702547217E-13, 7.498798913309210037E-33, 43.00000000000000000 ) ) ;
#190 = ORIENTED_EDGE ( 'NONE', *, *, #162, .F. ) ;
#191 = CC_DESIGN_APPROVAL ( #103, ( #185 ) ) ;
#192 = CARTESIAN_POINT ( 'NONE',  ( 0.0000000000000000000, 0.0000000000000000000, 0.0000000000000000000 ) ) ;
#193 = CC_DESIGN_PERSON_AND_ORGANIZATION_ASSIGNMENT ( #61, #18, ( #36 ) ) ;
#194 = CYLINDRICAL_SURFACE ( 'NONE', #145, 1.299999999999998268 ) ;
#195 = CARTESIAN_POINT ( 'NONE',  ( 2.116535832590186360E-15, -7.423808352706492458E-17, 0.6061999556015037482 ) ) ;
#196 = LOCAL_TIME ( 13, 20, 27.00000000000000000, #30 ) ;
#197 = CARTESIAN_POINT ( 'NONE',  ( 5.586370142149013368E-14, 1.299999999999994715, 16.00000000000000000 ) ) ;
#198 = APPROVAL_STATUS ( 'not_yet_approved' ) ;
#199 = LOCAL_TIME ( 13, 20, 27.00000000000000000, #157 ) ;
#200 = SECURITY_CLASSIFICATION_LEVEL ( 'unclassified' ) ;
#201 = AXIS2_PLACEMENT_3D ( 'NONE', #146, #136, #33 ) ;
#202 = CC_DESIGN_APPROVAL ( #115, ( #36 ) ) ;
#203 = CC_DESIGN_PERSON_AND_ORGANIZATION_ASSIGNMENT ( #66, #110, ( #26 ) ) ;
ENDSEC;
END-ISO-10303-21;
