ISO-10303-21;
HEADER;
FILE_DESCRIPTION (( 'STEP AP203' ),
    '1' );
FILE_NAME ('55653.step',
    '2021-10-06T11:20:25',
    ( '' ),
    ( '' ),
    'SwSTEP 2.0',
    'SolidWorks 2019',
    '' );
FILE_SCHEMA (( 'CONFIG_CONTROL_DESIGN' ));
ENDSEC;

DATA;
#1 = VERTEX_POINT ( 'NONE', #150 ) ;
#2 = DATE_AND_TIME ( #18, #199 ) ;
#3 = ADVANCED_FACE ( 'NONE', ( #135 ), #189, .F. ) ;
#4 = COORDINATED_UNIVERSAL_TIME_OFFSET ( 1, 0, .AHEAD. ) ;
#5 = APPROVAL_PERSON_ORGANIZATION ( #27, #41, #31 ) ;
#6 = CC_DESIGN_PERSON_AND_ORGANIZATION_ASSIGNMENT ( #82, #96, ( #95 ) ) ;
#7 = EDGE_LOOP ( 'NONE', ( #119 ) ) ;
#8 = CARTESIAN_POINT ( 'NONE',  ( 2.035130608259794031E-15, -7.138277262217779787E-17, 0.5828845726937534888 ) ) ;
#9 = DIRECTION ( 'NONE',  ( 3.081487911019590064E-31, 1.000000000000000000, 8.673617379884071217E-17 ) ) ;
#10 = CC_DESIGN_APPROVAL ( #188, ( #134 ) ) ;
#11 = VERTEX_POINT ( 'NONE', #132 ) ;
#12 = DIRECTION ( 'NONE',  ( -3.081487911019590064E-31, -1.000000000000000000, -8.673617379884071217E-17 ) ) ;
#13 = FACE_OUTER_BOUND ( 'NONE', #88, .T. ) ;
#14 = CC_DESIGN_APPROVAL ( #41, ( #95 ) ) ;
#15 = APPROVAL_STATUS ( 'not_yet_approved' ) ;
#16 = APPLICATION_PROTOCOL_DEFINITION ( 'international standard', 'config_control_design', 1994, #112 ) ;
#17 = DATE_AND_TIME ( #157, #105 ) ;
#18 = CALENDAR_DATE ( 2021, 6, 10 ) ;
#19 = EDGE_LOOP ( 'NONE', ( #84 ) ) ;
#20 = FACE_OUTER_BOUND ( 'NONE', #182, .T. ) ;
#21 = CARTESIAN_POINT ( 'NONE',  ( 0.0000000000000000000, 0.0000000000000000000, 0.0000000000000000000 ) ) ;
#22 = CC_DESIGN_PERSON_AND_ORGANIZATION_ASSIGNMENT ( #48, #173, ( #59 ) ) ;
#23 = FACE_OUTER_BOUND ( 'NONE', #202, .T. ) ;
#24 = AXIS2_PLACEMENT_3D ( 'NONE', #43, #124, #25 ) ;
#25 = DIRECTION ( 'NONE',  ( 4.275831445896958607E-31, 1.000000000000000000, 1.224646799147352961E-16 ) ) ;
#26 = FACE_BOUND ( 'NONE', #19, .T. ) ;
#27 = PERSON_AND_ORGANIZATION ( #55, #54 ) ;
#28 = AXIS2_PLACEMENT_3D ( 'NONE', #21, #192, #91 ) ;
#29 = PERSON_AND_ORGANIZATION_ROLE ( 'creator' ) ;
#30 = CC_DESIGN_DATE_AND_TIME_ASSIGNMENT ( #2, #60, ( #134 ) ) ;
#31 = APPROVAL_ROLE ( '' ) ;
#32 = LOCAL_TIME ( 13, 20, 25.00000000000000000, #179 ) ;
#33 = EDGE_CURVE ( 'NONE', #1, #1, #128, .T. ) ;
#34 = ADVANCED_BREP_SHAPE_REPRESENTATION ( '55653', ( #161, #158, #154 ), #114 ) ;
#35 = EDGE_LOOP ( 'NONE', ( #36 ) ) ;
#36 = ORIENTED_EDGE ( 'NONE', *, *, #50, .T. ) ;
#37 = CC_DESIGN_SECURITY_CLASSIFICATION ( #134, ( #59 ) ) ;
#38 = DESIGN_CONTEXT ( 'detailed design', #63, 'design' ) ;
#39 = DIRECTION ( 'NONE',  ( -3.491481338843133355E-15, 1.224646799147353207E-16, -1.000000000000000000 ) ) ;
#40 = DIRECTION ( 'NONE',  ( -3.491481338843133355E-15, 1.224646799147353207E-16, -1.000000000000000000 ) ) ;
#41 = APPROVAL ( #15, 'UNSPECIFIED' ) ;
#42 = FACE_OUTER_BOUND ( 'NONE', #164, .T. ) ;
#43 = CARTESIAN_POINT ( 'NONE',  ( 0.0000000000000000000, 0.0000000000000000000, 0.0000000000000000000 ) ) ;
#44 = DIRECTION ( 'NONE',  ( 0.0000000000000000000, 1.000000000000000000, 0.0000000000000000000 ) ) ;
#45 = DATE_TIME_ROLE ( 'creation_date' ) ;
#46 = COORDINATED_UNIVERSAL_TIME_OFFSET ( 1, 0, .AHEAD. ) ;
#47 = AXIS2_PLACEMENT_3D ( 'NONE', #190, #170, #148 ) ;
#48 = PERSON_AND_ORGANIZATION ( #55, #54 ) ;
#49 = CALENDAR_DATE ( 2021, 6, 10 ) ;
#50 = EDGE_CURVE ( 'NONE', #11, #11, #110, .T. ) ;
#51 = AXIS2_PLACEMENT_3D ( 'NONE', #73, #125, #57 ) ;
#52 = CYLINDRICAL_SURFACE ( 'NONE', #28, 1.249999999999998446 ) ;
#53 = CARTESIAN_POINT ( 'NONE',  ( 5.586370142149013368E-14, 9.373498641636556679E-33, 16.00000000000000000 ) ) ;
#54 = ORGANIZATION ( 'UNSPECIFIED', 'UNSPECIFIED', '' ) ;
#55 = PERSON ( 'UNSPECIFIED', 'UNSPECIFIED', 'UNSPECIFIED', ('UNSPECIFIED'), ('UNSPECIFIED'), ('UNSPECIFIED') ) ;
#56 = CYLINDRICAL_SURFACE ( 'NONE', #24, 1.249999999999996003 ) ;
#57 = DIRECTION ( 'NONE',  ( 0.0000000000000000000, 1.000000000000000000, 0.0000000000000000000 ) ) ;
#58 = DIRECTION ( 'NONE',  ( 0.0000000000000000000, 1.000000000000000000, 0.0000000000000000000 ) ) ;
#59 = PRODUCT_DEFINITION_FORMATION_WITH_SPECIFIED_SOURCE ( 'ANY', '', #137, .NOT_KNOWN. ) ;
#60 = DATE_TIME_ROLE ( 'classification_date' ) ;
#61 = PERSON_AND_ORGANIZATION ( #55, #54 ) ;
#62 = CC_DESIGN_PERSON_AND_ORGANIZATION_ASSIGNMENT ( #126, #98, ( #137 ) ) ;
#63 = APPLICATION_CONTEXT ( 'configuration controlled 3d designs of mechanical parts and assemblies' ) ;
#64 = ADVANCED_FACE ( 'NONE', ( #42 ), #187, .F. ) ;
#65 = APPROVAL_DATE_TIME ( #17, #188 ) ;
#66 = APPROVAL_PERSON_ORGANIZATION ( #61, #102, #80 ) ;
#67 = ORIENTED_EDGE ( 'NONE', *, *, #90, .F. ) ;
#68 = ORIENTED_EDGE ( 'NONE', *, *, #33, .F. ) ;
#69 = AXIS2_PLACEMENT_3D ( 'NONE', #108, #168, #58 ) ;
#70 = EDGE_LOOP ( 'NONE', ( #68 ) ) ;
#71 = EDGE_CURVE ( 'NONE', #121, #121, #81, .T. ) ;
#72 = DIRECTION ( 'NONE',  ( 0.0000000000000000000, 1.000000000000000000, 0.0000000000000000000 ) ) ;
#73 = CARTESIAN_POINT ( 'NONE',  ( 5.586370142149013368E-14, -1.959434878635765131E-15, 16.00000000000000000 ) ) ;
#74 = AXIS2_PLACEMENT_3D ( 'NONE', #106, #40, #72 ) ;
#75 = VERTEX_POINT ( 'NONE', #166 ) ;
#76 = CARTESIAN_POINT ( 'NONE',  ( 1.490862531686017753E-13, -5.229241832359197610E-15, 42.69999999999999574 ) ) ;
#77 = FACE_OUTER_BOUND ( 'NONE', #70, .T. ) ;
#78 = APPROVAL_STATUS ( 'not_yet_approved' ) ;
#79 = ADVANCED_FACE ( 'NONE', ( #13, #26 ), #193, .T. ) ;
#80 = APPROVAL_ROLE ( '' ) ;
#81 = CIRCLE ( 'NONE', #74, 0.9500000000000001776 ) ;
#82 = PERSON_AND_ORGANIZATION ( #55, #54 ) ;
#83 = CLOSED_SHELL ( 'NONE', ( #185, #156, #162 ) ) ;
#84 = ORIENTED_EDGE ( 'NONE', *, *, #71, .T. ) ;
#85 = LOCAL_TIME ( 13, 20, 25.00000000000000000, #116 ) ;
#86 = UNCERTAINTY_MEASURE_WITH_UNIT (LENGTH_MEASURE( 1.000000000000000082E-05 ), #178, 'distance_accuracy_value', 'NONE');
#87 = DIRECTION ( 'NONE',  ( -4.275831445896958607E-31, -1.000000000000000000, -1.224646799147353207E-16 ) ) ;
#88 = EDGE_LOOP ( 'NONE', ( #200 ) ) ;
#89 = PRODUCT_DEFINITION_SHAPE ( 'NONE', 'NONE',  #95 ) ;
#90 = EDGE_CURVE ( 'NONE', #75, #75, #165, .T. ) ;
#91 = DIRECTION ( 'NONE',  ( 4.275831445896959482E-31, 1.000000000000000000, 1.224646799147353207E-16 ) ) ;
#92 = CARTESIAN_POINT ( 'NONE',  ( 2.035130608259794031E-15, -7.138277262217779787E-17, 0.5828845726937534888 ) ) ;
#93 = VERTEX_POINT ( 'NONE', #203 ) ;
#94 = PERSON_AND_ORGANIZATION ( #55, #54 ) ;
#95 = PRODUCT_DEFINITION ( 'UNKNOWN', '', #59, #38 ) ;
#96 = PERSON_AND_ORGANIZATION_ROLE ( 'creator' ) ;
#97 = PRODUCT_RELATED_PRODUCT_CATEGORY ( 'detail', '', ( #137 ) ) ;
#98 = PERSON_AND_ORGANIZATION_ROLE ( 'design_owner' ) ;
#99 = APPLICATION_PROTOCOL_DEFINITION ( 'international standard', 'config_control_design', 1994, #63 ) ;
#100 = CONICAL_SURFACE ( 'NONE', #118, 1.249999999999994893, 1.134464013796309123 ) ;
#101 = PERSON_AND_ORGANIZATION ( #55, #54 ) ;
#102 = APPROVAL ( #198, 'UNSPECIFIED' ) ;
#103 = AXIS2_PLACEMENT_3D ( 'NONE', #53, #136, #87 ) ;
#104 = DIRECTION ( 'NONE',  ( -3.491481338843133355E-15, 1.224646799147353207E-16, -1.000000000000000000 ) ) ;
#105 = LOCAL_TIME ( 13, 20, 25.00000000000000000, #46 ) ;
#106 = CARTESIAN_POINT ( 'NONE',  ( 1.501336975702547217E-13, -5.265981236333618470E-15, 43.00000000000000000 ) ) ;
#107 = CC_DESIGN_PERSON_AND_ORGANIZATION_ASSIGNMENT ( #117, #29, ( #59 ) ) ;
#108 = CARTESIAN_POINT ( 'NONE',  ( 1.501336975702547217E-13, -5.265981236333618470E-15, 43.00000000000000000 ) ) ;
#109 = FACE_OUTER_BOUND ( 'NONE', #35, .T. ) ;
#110 = CIRCLE ( 'NONE', #176, 1.250000000000000000 ) ;
#111 = FACE_OUTER_BOUND ( 'NONE', #131, .T. ) ;
#112 = APPLICATION_CONTEXT ( 'configuration controlled 3d designs of mechanical parts and assemblies' ) ;
#113 = DATE_AND_TIME ( #49, #32 ) ;
#114 =( GEOMETRIC_REPRESENTATION_CONTEXT ( 3 ) GLOBAL_UNCERTAINTY_ASSIGNED_CONTEXT ( ( #86 ) ) GLOBAL_UNIT_ASSIGNED_CONTEXT ( ( #178, #142, #144 ) ) REPRESENTATION_CONTEXT ( 'NONE', 'WORKASPACE' ) );
#115 = APPROVAL_ROLE ( '' ) ;
#116 = COORDINATED_UNIVERSAL_TIME_OFFSET ( 1, 0, .AHEAD. ) ;
#117 = PERSON_AND_ORGANIZATION ( #55, #54 ) ;
#118 = AXIS2_PLACEMENT_3D ( 'NONE', #92, #151, #12 ) ;
#119 = ORIENTED_EDGE ( 'NONE', *, *, #33, .T. ) ;
#120 = ORIENTED_EDGE ( 'NONE', *, *, #167, .T. ) ;
#121 = VERTEX_POINT ( 'NONE', #122 ) ;
#122 = CARTESIAN_POINT ( 'NONE',  ( 1.501336975702547217E-13, 0.9499999999999948486, 43.00000000000000000 ) ) ;
#123 = FACE_OUTER_BOUND ( 'NONE', #7, .T. ) ;
#124 = DIRECTION ( 'NONE',  ( -3.491481338843133355E-15, 1.224646799147353207E-16, -1.000000000000000000 ) ) ;
#125 = DIRECTION ( 'NONE',  ( -3.491481338843133355E-15, 1.224646799147353207E-16, -1.000000000000000000 ) ) ;
#126 = PERSON_AND_ORGANIZATION ( #55, #54 ) ;
#127 = DATE_AND_TIME ( #153, #85 ) ;
#128 = CIRCLE ( 'NONE', #181, 1.249999999999994893 ) ;
#129 = MECHANICAL_CONTEXT ( 'NONE', #112, 'mechanical' ) ;
#130 = AXIS2_PLACEMENT_3D ( 'NONE', #169, #133, #172 ) ;
#131 = EDGE_LOOP ( 'NONE', ( #163 ) ) ;
#132 = CARTESIAN_POINT ( 'NONE',  ( 1.490862531686017753E-13, 1.249999999999994893, 42.69999999999999574 ) ) ;
#133 = DIRECTION ( 'NONE',  ( -3.491481338843133355E-15, 1.224646799147353207E-16, -1.000000000000000000 ) ) ;
#134 = SECURITY_CLASSIFICATION ( '', '', #180 ) ;
#135 = FACE_OUTER_BOUND ( 'NONE', #183, .T. ) ;
#136 = DIRECTION ( 'NONE',  ( 3.491481338843133355E-15, -1.224646799147353207E-16, 1.000000000000000000 ) ) ;
#137 = PRODUCT ( '55653', '55653', '', ( #129 ) ) ;
#138 = DIRECTION ( 'NONE',  ( 4.275831445896958607E-31, 1.000000000000000000, 1.224646799147353207E-16 ) ) ;
#139 = DATE_AND_TIME ( #194, #146 ) ;
#140 = DIRECTION ( 'NONE',  ( 0.0000000000000000000, 0.0000000000000000000, 1.000000000000000000 ) ) ;
#141 = ADVANCED_FACE ( 'NONE', ( #20, #109 ), #52, .T. ) ;
#142 =( NAMED_UNIT ( * ) PLANE_ANGLE_UNIT ( ) SI_UNIT ( $, .RADIAN. ) );
#143 = AXIS2_PLACEMENT_3D ( 'NONE', #186, #152, #138 ) ;
#144 =( NAMED_UNIT ( * ) SI_UNIT ( $, .STERADIAN. ) SOLID_ANGLE_UNIT ( ) );
#145 = SHAPE_DEFINITION_REPRESENTATION ( #89, #34 ) ;
#146 = LOCAL_TIME ( 13, 20, 25.00000000000000000, #195 ) ;
#147 = ORIENTED_EDGE ( 'NONE', *, *, #90, .T. ) ;
#148 = DIRECTION ( 'NONE',  ( -4.275831445896958607E-31, -1.000000000000000000, -1.224646799147353207E-16 ) ) ;
#149 = PLANE ( 'NONE',  #47 ) ;
#150 = CARTESIAN_POINT ( 'NONE',  ( 2.035130608259794425E-15, 1.249999999999994893, 0.5828845726937535998 ) ) ;
#151 = DIRECTION ( 'NONE',  ( 3.491481338843133355E-15, -1.224646799147353207E-16, 1.000000000000000000 ) ) ;
#152 = DIRECTION ( 'NONE',  ( -3.491481338843133355E-15, 1.224646799147353207E-16, -1.000000000000000000 ) ) ;
#153 = CALENDAR_DATE ( 2021, 6, 10 ) ;
#154 = AXIS2_PLACEMENT_3D ( 'NONE', #174, #140, #197 ) ;
#155 = APPROVAL_DATE_TIME ( #139, #41 ) ;
#156 = ADVANCED_FACE ( 'NONE', ( #77, #23 ), #56, .T. ) ;
#157 = CALENDAR_DATE ( 2021, 6, 10 ) ;
#158 = MANIFOLD_SOLID_BREP ( 'Corps-Déplacer/Copier1[2]', #83 ) ;
#159 = APPROVAL_DATE_TIME ( #113, #102 ) ;
#160 = PERSON_AND_ORGANIZATION_ROLE ( 'classification_officer' ) ;
#161 = MANIFOLD_SOLID_BREP ( 'Corps-Déplacer/Copier1[1]', #175 ) ;
#162 = ADVANCED_FACE ( 'NONE', ( #111 ), #149, .T. ) ;
#163 = ORIENTED_EDGE ( 'NONE', *, *, #167, .F. ) ;
#164 = EDGE_LOOP ( 'NONE', ( #147 ) ) ;
#165 = CIRCLE ( 'NONE', #51, 1.249999999999996669 ) ;
#166 = CARTESIAN_POINT ( 'NONE',  ( 5.586370142149013368E-14, 1.249999999999994893, 16.00000000000000000 ) ) ;
#167 = EDGE_CURVE ( 'NONE', #93, #93, #191, .T. ) ;
#168 = DIRECTION ( 'NONE',  ( -3.491481338843133355E-15, 1.224646799147353207E-16, -1.000000000000000000 ) ) ;
#169 = CARTESIAN_POINT ( 'NONE',  ( 5.586370142149013368E-14, -1.959434878635765131E-15, 16.00000000000000000 ) ) ;
#170 = DIRECTION ( 'NONE',  ( 3.491481338843133355E-15, -1.224646799147353207E-16, 1.000000000000000000 ) ) ;
#171 = CC_DESIGN_APPROVAL ( #102, ( #59 ) ) ;
#172 = DIRECTION ( 'NONE',  ( 0.0000000000000000000, 1.000000000000000000, 0.0000000000000000000 ) ) ;
#173 = PERSON_AND_ORGANIZATION_ROLE ( 'design_supplier' ) ;
#174 = CARTESIAN_POINT ( 'NONE',  ( 0.0000000000000000000, 0.0000000000000000000, 0.0000000000000000000 ) ) ;
#175 = CLOSED_SHELL ( 'NONE', ( #64, #141, #79, #3 ) ) ;
#176 = AXIS2_PLACEMENT_3D ( 'NONE', #76, #104, #44 ) ;
#177 = CC_DESIGN_DATE_AND_TIME_ASSIGNMENT ( #127, #45, ( #95 ) ) ;
#178 =( LENGTH_UNIT ( ) NAMED_UNIT ( * ) SI_UNIT ( .MILLI., .METRE. ) );
#179 = COORDINATED_UNIVERSAL_TIME_OFFSET ( 1, 0, .AHEAD. ) ;
#180 = SECURITY_CLASSIFICATION_LEVEL ( 'unclassified' ) ;
#181 = AXIS2_PLACEMENT_3D ( 'NONE', #8, #39, #9 ) ;
#182 = EDGE_LOOP ( 'NONE', ( #67 ) ) ;
#183 = EDGE_LOOP ( 'NONE', ( #184 ) ) ;
#184 = ORIENTED_EDGE ( 'NONE', *, *, #71, .F. ) ;
#185 = ADVANCED_FACE ( 'NONE', ( #123 ), #100, .T. ) ;
#186 = CARTESIAN_POINT ( 'NONE',  ( 1.501336975702547217E-13, 7.123858967643745635E-33, 43.00000000000000000 ) ) ;
#187 = PLANE ( 'NONE',  #103 ) ;
#188 = APPROVAL ( #78, 'UNSPECIFIED' ) ;
#189 = PLANE ( 'NONE',  #143 ) ;
#190 = CARTESIAN_POINT ( 'NONE',  ( 5.586370142149013368E-14, 9.373498641636556679E-33, 16.00000000000000000 ) ) ;
#191 = CIRCLE ( 'NONE', #130, 1.249999999999996669 ) ;
#192 = DIRECTION ( 'NONE',  ( -3.491481338843133355E-15, 1.224646799147353207E-16, -1.000000000000000000 ) ) ;
#193 = CONICAL_SURFACE ( 'NONE', #69, 0.9500000000000001776, 0.7853981633974452814 ) ;
#194 = CALENDAR_DATE ( 2021, 6, 10 ) ;
#195 = COORDINATED_UNIVERSAL_TIME_OFFSET ( 1, 0, .AHEAD. ) ;
#196 = APPROVAL_PERSON_ORGANIZATION ( #94, #188, #115 ) ;
#197 = DIRECTION ( 'NONE',  ( 1.000000000000000000, 0.0000000000000000000, 0.0000000000000000000 ) ) ;
#198 = APPROVAL_STATUS ( 'not_yet_approved' ) ;
#199 = LOCAL_TIME ( 13, 20, 25.00000000000000000, #4 ) ;
#200 = ORIENTED_EDGE ( 'NONE', *, *, #50, .F. ) ;
#201 = CC_DESIGN_PERSON_AND_ORGANIZATION_ASSIGNMENT ( #101, #160, ( #134 ) ) ;
#202 = EDGE_LOOP ( 'NONE', ( #120 ) ) ;
#203 = CARTESIAN_POINT ( 'NONE',  ( 5.586370142149013368E-14, 1.249999999999994893, 16.00000000000000000 ) ) ;
ENDSEC;
END-ISO-10303-21;
