ISO-10303-21;
HEADER;
FILE_DESCRIPTION (( 'STEP AP203' ),
    '1' );
FILE_NAME ('55651.step',
    '2021-10-06T11:20:23',
    ( '' ),
    ( '' ),
    'SwSTEP 2.0',
    'SolidWorks 2019',
    '' );
FILE_SCHEMA (( 'CONFIG_CONTROL_DESIGN' ));
ENDSEC;

DATA;
#1 = DATE_AND_TIME ( #184, #201 ) ;
#2 = AXIS2_PLACEMENT_3D ( 'NONE', #123, #124, #17 ) ;
#3 = ORIENTED_EDGE ( 'NONE', *, *, #126, .T. ) ;
#4 = EDGE_LOOP ( 'NONE', ( #64 ) ) ;
#5 = EDGE_LOOP ( 'NONE', ( #141 ) ) ;
#6 = FACE_OUTER_BOUND ( 'NONE', #52, .T. ) ;
#7 = APPLICATION_PROTOCOL_DEFINITION ( 'international standard', 'config_control_design', 1994, #73 ) ;
#8 = EDGE_CURVE ( 'NONE', #161, #161, #49, .T. ) ;
#9 = APPROVAL_ROLE ( '' ) ;
#10 =( LENGTH_UNIT ( ) NAMED_UNIT ( * ) SI_UNIT ( .MILLI., .METRE. ) );
#11 = APPLICATION_CONTEXT ( 'configuration controlled 3d designs of mechanical parts and assemblies' ) ;
#12 = DIRECTION ( 'NONE',  ( 3.491481338843133355E-15, -1.224646799147353207E-16, 1.000000000000000000 ) ) ;
#13 =( GEOMETRIC_REPRESENTATION_CONTEXT ( 3 ) GLOBAL_UNCERTAINTY_ASSIGNED_CONTEXT ( ( #148 ) ) GLOBAL_UNIT_ASSIGNED_CONTEXT ( ( #10, #199, #129 ) ) REPRESENTATION_CONTEXT ( 'NONE', 'WORKASPACE' ) );
#14 = APPROVAL_STATUS ( 'not_yet_approved' ) ;
#15 = PERSON_AND_ORGANIZATION ( #153, #122 ) ;
#16 = APPROVAL ( #76, 'UNSPECIFIED' ) ;
#17 = DIRECTION ( 'NONE',  ( 0.0000000000000000000, 1.000000000000000000, 0.0000000000000000000 ) ) ;
#18 = EDGE_LOOP ( 'NONE', ( #86 ) ) ;
#19 = EDGE_LOOP ( 'NONE', ( #195 ) ) ;
#20 = ADVANCED_BREP_SHAPE_REPRESENTATION ( '55651', ( #37, #106, #41 ), #13 ) ;
#21 = DIRECTION ( 'NONE',  ( -3.491481338843133355E-15, 1.224646799147353207E-16, -1.000000000000000000 ) ) ;
#22 = DIRECTION ( 'NONE',  ( 0.0000000000000000000, 1.000000000000000000, 0.0000000000000000000 ) ) ;
#23 = APPROVAL_PERSON_ORGANIZATION ( #202, #160, #136 ) ;
#24 = PERSON_AND_ORGANIZATION ( #153, #122 ) ;
#25 = DIRECTION ( 'NONE',  ( 0.0000000000000000000, 1.000000000000000000, 0.0000000000000000000 ) ) ;
#26 = EDGE_CURVE ( 'NONE', #102, #102, #157, .T. ) ;
#27 = DESIGN_CONTEXT ( 'detailed design', #73, 'design' ) ;
#28 = DATE_AND_TIME ( #48, #187 ) ;
#29 = LOCAL_TIME ( 13, 20, 23.00000000000000000, #128 ) ;
#30 = CALENDAR_DATE ( 2021, 6, 10 ) ;
#31 = CC_DESIGN_PERSON_AND_ORGANIZATION_ASSIGNMENT ( #185, #108, ( #100 ) ) ;
#32 = AXIS2_PLACEMENT_3D ( 'NONE', #105, #56, #118 ) ;
#33 = DIRECTION ( 'NONE',  ( -3.491481338843133355E-15, 1.224646799147353207E-16, -1.000000000000000000 ) ) ;
#34 = ADVANCED_FACE ( 'NONE', ( #125, #193 ), #95, .T. ) ;
#35 = ORIENTED_EDGE ( 'NONE', *, *, #26, .T. ) ;
#36 = DIRECTION ( 'NONE',  ( 0.0000000000000000000, 1.000000000000000000, 0.0000000000000000000 ) ) ;
#37 = MANIFOLD_SOLID_BREP ( 'Corps-Déplacer/Copier1[1]', #151 ) ;
#38 = APPLICATION_PROTOCOL_DEFINITION ( 'international standard', 'config_control_design', 1994, #11 ) ;
#39 = PRODUCT ( '55651', '55651', '', ( #114 ) ) ;
#40 = CARTESIAN_POINT ( 'NONE',  ( 5.586370142149013368E-14, 1.199999999999995071, 16.00000000000000000 ) ) ;
#41 = AXIS2_PLACEMENT_3D ( 'NONE', #117, #146, #98 ) ;
#42 = DIRECTION ( 'NONE',  ( 4.275831445896958607E-31, 1.000000000000000000, 1.224646799147353207E-16 ) ) ;
#43 = CARTESIAN_POINT ( 'NONE',  ( 1.501336975702547217E-13, -5.265981236333618470E-15, 43.00000000000000000 ) ) ;
#44 = DIRECTION ( 'NONE',  ( 0.0000000000000000000, 1.000000000000000000, 0.0000000000000000000 ) ) ;
#45 = COORDINATED_UNIVERSAL_TIME_OFFSET ( 1, 0, .AHEAD. ) ;
#46 = SHAPE_DEFINITION_REPRESENTATION ( #181, #20 ) ;
#47 = ADVANCED_FACE ( 'NONE', ( #112 ), #158, .F. ) ;
#48 = CALENDAR_DATE ( 2021, 6, 10 ) ;
#49 = CIRCLE ( 'NONE', #147, 1.199999999999995071 ) ;
#50 = LOCAL_TIME ( 13, 20, 23.00000000000000000, #200 ) ;
#51 = DIRECTION ( 'NONE',  ( 4.275831445896957731E-31, 1.000000000000000000, 1.224646799147353207E-16 ) ) ;
#52 = EDGE_LOOP ( 'NONE', ( #85 ) ) ;
#53 = DIRECTION ( 'NONE',  ( -3.491481338843133355E-15, 1.224646799147353207E-16, -1.000000000000000000 ) ) ;
#54 = AXIS2_PLACEMENT_3D ( 'NONE', #191, #53, #51 ) ;
#55 = CC_DESIGN_PERSON_AND_ORGANIZATION_ASSIGNMENT ( #78, #60, ( #135 ) ) ;
#56 = DIRECTION ( 'NONE',  ( 3.491481338843133355E-15, -1.224646799147353207E-16, 1.000000000000000000 ) ) ;
#57 = VERTEX_POINT ( 'NONE', #99 ) ;
#58 = PLANE ( 'NONE',  #32 ) ;
#59 = DATE_TIME_ROLE ( 'classification_date' ) ;
#60 = PERSON_AND_ORGANIZATION_ROLE ( 'design_supplier' ) ;
#61 = PERSON_AND_ORGANIZATION ( #153, #122 ) ;
#62 = CC_DESIGN_APPROVAL ( #192, ( #100 ) ) ;
#63 = ORIENTED_EDGE ( 'NONE', *, *, #66, .T. ) ;
#64 = ORIENTED_EDGE ( 'NONE', *, *, #143, .F. ) ;
#65 = AXIS2_PLACEMENT_3D ( 'NONE', #159, #139, #22 ) ;
#66 = EDGE_CURVE ( 'NONE', #57, #57, #167, .T. ) ;
#67 = CYLINDRICAL_SURFACE ( 'NONE', #96, 1.199999999999996181 ) ;
#68 = LOCAL_TIME ( 13, 20, 23.00000000000000000, #131 ) ;
#69 = CARTESIAN_POINT ( 'NONE',  ( 1.953725383929402885E-15, -6.852746171729069582E-17, 0.5595691897860034514 ) ) ;
#70 = CARTESIAN_POINT ( 'NONE',  ( 1.490862531686017501E-13, 1.199999999999995071, 42.69999999999998863 ) ) ;
#71 = AXIS2_PLACEMENT_3D ( 'NONE', #176, #111, #155 ) ;
#72 = PLANE ( 'NONE',  #132 ) ;
#73 = APPLICATION_CONTEXT ( 'configuration controlled 3d designs of mechanical parts and assemblies' ) ;
#74 = CARTESIAN_POINT ( 'NONE',  ( 5.586370142149013368E-14, -1.959434878635765131E-15, 16.00000000000000000 ) ) ;
#75 = CONICAL_SURFACE ( 'NONE', #65, 0.9000000000000004663, 0.7853981633974336241 ) ;
#76 = APPROVAL_STATUS ( 'not_yet_approved' ) ;
#77 = APPROVAL_DATE_TIME ( #150, #16 ) ;
#78 = PERSON_AND_ORGANIZATION ( #153, #122 ) ;
#79 = CONICAL_SURFACE ( 'NONE', #179, 1.199999999999995071, 1.134464013796309123 ) ;
#80 = FACE_OUTER_BOUND ( 'NONE', #19, .T. ) ;
#81 = ADVANCED_FACE ( 'NONE', ( #6, #97 ), #75, .T. ) ;
#82 = EDGE_LOOP ( 'NONE', ( #140 ) ) ;
#83 = ORIENTED_EDGE ( 'NONE', *, *, #8, .T. ) ;
#84 = APPROVAL_PERSON_ORGANIZATION ( #87, #192, #9 ) ;
#85 = ORIENTED_EDGE ( 'NONE', *, *, #26, .F. ) ;
#86 = ORIENTED_EDGE ( 'NONE', *, *, #143, .T. ) ;
#87 = PERSON_AND_ORGANIZATION ( #153, #122 ) ;
#88 = VERTEX_POINT ( 'NONE', #127 ) ;
#89 = CLOSED_SHELL ( 'NONE', ( #115, #104, #156 ) ) ;
#90 = CC_DESIGN_PERSON_AND_ORGANIZATION_ASSIGNMENT ( #24, #144, ( #39 ) ) ;
#91 = PERSON_AND_ORGANIZATION ( #153, #122 ) ;
#92 = AXIS2_PLACEMENT_3D ( 'NONE', #173, #21, #36 ) ;
#93 = EDGE_LOOP ( 'NONE', ( #83 ) ) ;
#94 = EDGE_LOOP ( 'NONE', ( #3 ) ) ;
#95 = CYLINDRICAL_SURFACE ( 'NONE', #54, 1.199999999999998845 ) ;
#96 = AXIS2_PLACEMENT_3D ( 'NONE', #138, #33, #42 ) ;
#97 = FACE_BOUND ( 'NONE', #94, .T. ) ;
#98 = DIRECTION ( 'NONE',  ( 1.000000000000000000, 0.0000000000000000000, 0.0000000000000000000 ) ) ;
#99 = CARTESIAN_POINT ( 'NONE',  ( 5.586370142149013368E-14, 1.199999999999995071, 16.00000000000000000 ) ) ;
#100 = PRODUCT_DEFINITION ( 'UNKNOWN', '', #135, #27 ) ;
#101 = CC_DESIGN_APPROVAL ( #160, ( #135 ) ) ;
#102 = VERTEX_POINT ( 'NONE', #70 ) ;
#103 = DIRECTION ( 'NONE',  ( -3.491481338843133355E-15, 1.224646799147353207E-16, -1.000000000000000000 ) ) ;
#104 = ADVANCED_FACE ( 'NONE', ( #80, #142 ), #67, .T. ) ;
#105 = CARTESIAN_POINT ( 'NONE',  ( 5.586370142149013368E-14, 8.998558695971095014E-33, 16.00000000000000000 ) ) ;
#106 = MANIFOLD_SOLID_BREP ( 'Corps-Déplacer/Copier1[2]', #89 ) ;
#107 = AXIS2_PLACEMENT_3D ( 'NONE', #43, #103, #25 ) ;
#108 = PERSON_AND_ORGANIZATION_ROLE ( 'creator' ) ;
#109 = ADVANCED_FACE ( 'NONE', ( #113 ), #58, .F. ) ;
#110 = PRODUCT_RELATED_PRODUCT_CATEGORY ( 'detail', '', ( #39 ) ) ;
#111 = DIRECTION ( 'NONE',  ( -3.491481338843133355E-15, 1.224646799147353207E-16, -1.000000000000000000 ) ) ;
#112 = FACE_OUTER_BOUND ( 'NONE', #82, .T. ) ;
#113 = FACE_OUTER_BOUND ( 'NONE', #18, .T. ) ;
#114 = MECHANICAL_CONTEXT ( 'NONE', #11, 'mechanical' ) ;
#115 = ADVANCED_FACE ( 'NONE', ( #164 ), #79, .T. ) ;
#116 = CARTESIAN_POINT ( 'NONE',  ( 5.586370142149013368E-14, 8.998558695971095014E-33, 16.00000000000000000 ) ) ;
#117 = CARTESIAN_POINT ( 'NONE',  ( 0.0000000000000000000, 0.0000000000000000000, 0.0000000000000000000 ) ) ;
#118 = DIRECTION ( 'NONE',  ( -4.275831445896958607E-31, -1.000000000000000000, -1.224646799147353207E-16 ) ) ;
#119 = DATE_AND_TIME ( #196, #29 ) ;
#120 = APPROVAL_DATE_TIME ( #188, #160 ) ;
#121 = DIRECTION ( 'NONE',  ( 3.209883240645406372E-31, 1.000000000000000000, 9.035018104045907672E-17 ) ) ;
#122 = ORGANIZATION ( 'UNSPECIFIED', 'UNSPECIFIED', '' ) ;
#123 = CARTESIAN_POINT ( 'NONE',  ( 1.490862531686017501E-13, -5.229241832359196822E-15, 42.69999999999998863 ) ) ;
#124 = DIRECTION ( 'NONE',  ( -3.491481338843133355E-15, 1.224646799147353207E-16, -1.000000000000000000 ) ) ;
#125 = FACE_OUTER_BOUND ( 'NONE', #4, .T. ) ;
#126 = EDGE_CURVE ( 'NONE', #88, #88, #194, .T. ) ;
#127 = CARTESIAN_POINT ( 'NONE',  ( 1.501336975702547217E-13, 0.8999999999999952482, 43.00000000000000000 ) ) ;
#128 = COORDINATED_UNIVERSAL_TIME_OFFSET ( 1, 0, .AHEAD. ) ;
#129 =( NAMED_UNIT ( * ) SI_UNIT ( $, .STERADIAN. ) SOLID_ANGLE_UNIT ( ) );
#130 = DIRECTION ( 'NONE',  ( -4.275831445896958607E-31, -1.000000000000000000, -1.224646799147353207E-16 ) ) ;
#131 = COORDINATED_UNIVERSAL_TIME_OFFSET ( 1, 0, .AHEAD. ) ;
#132 = AXIS2_PLACEMENT_3D ( 'NONE', #116, #12, #130 ) ;
#133 = CC_DESIGN_PERSON_AND_ORGANIZATION_ASSIGNMENT ( #15, #134, ( #137 ) ) ;
#134 = PERSON_AND_ORGANIZATION_ROLE ( 'classification_officer' ) ;
#135 = PRODUCT_DEFINITION_FORMATION_WITH_SPECIFIED_SOURCE ( 'ANY', '', #39, .NOT_KNOWN. ) ;
#136 = APPROVAL_ROLE ( '' ) ;
#137 = SECURITY_CLASSIFICATION ( '', '', #169 ) ;
#138 = CARTESIAN_POINT ( 'NONE',  ( 0.0000000000000000000, 0.0000000000000000000, 0.0000000000000000000 ) ) ;
#139 = DIRECTION ( 'NONE',  ( -3.491481338843133355E-15, 1.224646799147353207E-16, -1.000000000000000000 ) ) ;
#140 = ORIENTED_EDGE ( 'NONE', *, *, #126, .F. ) ;
#141 = ORIENTED_EDGE ( 'NONE', *, *, #66, .F. ) ;
#142 = FACE_OUTER_BOUND ( 'NONE', #190, .T. ) ;
#143 = EDGE_CURVE ( 'NONE', #165, #165, #162, .T. ) ;
#144 = PERSON_AND_ORGANIZATION_ROLE ( 'design_owner' ) ;
#145 = APPROVAL_STATUS ( 'not_yet_approved' ) ;
#146 = DIRECTION ( 'NONE',  ( 0.0000000000000000000, 0.0000000000000000000, 1.000000000000000000 ) ) ;
#147 = AXIS2_PLACEMENT_3D ( 'NONE', #175, #189, #121 ) ;
#148 = UNCERTAINTY_MEASURE_WITH_UNIT (LENGTH_MEASURE( 1.000000000000000082E-05 ), #10, 'distance_accuracy_value', 'NONE');
#149 = APPROVAL_ROLE ( '' ) ;
#150 = DATE_AND_TIME ( #30, #68 ) ;
#151 = CLOSED_SHELL ( 'NONE', ( #109, #34, #81, #47 ) ) ;
#152 = APPROVAL_DATE_TIME ( #119, #192 ) ;
#153 = PERSON ( 'UNSPECIFIED', 'UNSPECIFIED', 'UNSPECIFIED', ('UNSPECIFIED'), ('UNSPECIFIED'), ('UNSPECIFIED') ) ;
#154 = CC_DESIGN_SECURITY_CLASSIFICATION ( #137, ( #135 ) ) ;
#155 = DIRECTION ( 'NONE',  ( 4.275831445896958607E-31, 1.000000000000000000, 1.224646799147353207E-16 ) ) ;
#156 = ADVANCED_FACE ( 'NONE', ( #177 ), #72, .T. ) ;
#157 = CIRCLE ( 'NONE', #2, 1.200000000000000400 ) ;
#158 = PLANE ( 'NONE',  #71 ) ;
#159 = CARTESIAN_POINT ( 'NONE',  ( 1.501336975702547217E-13, -5.265981236333618470E-15, 43.00000000000000000 ) ) ;
#160 = APPROVAL ( #14, 'UNSPECIFIED' ) ;
#161 = VERTEX_POINT ( 'NONE', #178 ) ;
#162 = CIRCLE ( 'NONE', #197, 1.199999999999997069 ) ;
#163 = CC_DESIGN_PERSON_AND_ORGANIZATION_ASSIGNMENT ( #91, #203, ( #135 ) ) ;
#164 = FACE_OUTER_BOUND ( 'NONE', #93, .T. ) ;
#165 = VERTEX_POINT ( 'NONE', #40 ) ;
#166 = DIRECTION ( 'NONE',  ( 3.491481338843133355E-15, -1.224646799147353207E-16, 1.000000000000000000 ) ) ;
#167 = CIRCLE ( 'NONE', #92, 1.199999999999997069 ) ;
#168 = COORDINATED_UNIVERSAL_TIME_OFFSET ( 1, 0, .AHEAD. ) ;
#169 = SECURITY_CLASSIFICATION_LEVEL ( 'unclassified' ) ;
#170 = CC_DESIGN_APPROVAL ( #16, ( #137 ) ) ;
#171 = DATE_TIME_ROLE ( 'creation_date' ) ;
#172 = EDGE_LOOP ( 'NONE', ( #35 ) ) ;
#173 = CARTESIAN_POINT ( 'NONE',  ( 5.586370142149013368E-14, -1.959434878635765131E-15, 16.00000000000000000 ) ) ;
#174 = CC_DESIGN_DATE_AND_TIME_ASSIGNMENT ( #1, #59, ( #137 ) ) ;
#175 = CARTESIAN_POINT ( 'NONE',  ( 1.953725383929402885E-15, -6.852746171729069582E-17, 0.5595691897860034514 ) ) ;
#176 = CARTESIAN_POINT ( 'NONE',  ( 1.501336975702547217E-13, 6.748919021978283970E-33, 43.00000000000000000 ) ) ;
#177 = FACE_OUTER_BOUND ( 'NONE', #5, .T. ) ;
#178 = CARTESIAN_POINT ( 'NONE',  ( 1.953725383929403280E-15, 1.199999999999995071, 0.5595691897860035624 ) ) ;
#179 = AXIS2_PLACEMENT_3D ( 'NONE', #69, #166, #182 ) ;
#180 = APPROVAL_PERSON_ORGANIZATION ( #61, #16, #149 ) ;
#181 = PRODUCT_DEFINITION_SHAPE ( 'NONE', 'NONE',  #100 ) ;
#182 = DIRECTION ( 'NONE',  ( -3.209883240645406372E-31, -1.000000000000000000, -9.035018104045907672E-17 ) ) ;
#183 = DIRECTION ( 'NONE',  ( -3.491481338843133355E-15, 1.224646799147353207E-16, -1.000000000000000000 ) ) ;
#184 = CALENDAR_DATE ( 2021, 6, 10 ) ;
#185 = PERSON_AND_ORGANIZATION ( #153, #122 ) ;
#186 = CALENDAR_DATE ( 2021, 6, 10 ) ;
#187 = LOCAL_TIME ( 13, 20, 23.00000000000000000, #168 ) ;
#188 = DATE_AND_TIME ( #186, #50 ) ;
#189 = DIRECTION ( 'NONE',  ( -3.491481338843133355E-15, 1.224646799147353207E-16, -1.000000000000000000 ) ) ;
#190 = EDGE_LOOP ( 'NONE', ( #63 ) ) ;
#191 = CARTESIAN_POINT ( 'NONE',  ( 0.0000000000000000000, 0.0000000000000000000, 0.0000000000000000000 ) ) ;
#192 = APPROVAL ( #145, 'UNSPECIFIED' ) ;
#193 = FACE_OUTER_BOUND ( 'NONE', #172, .T. ) ;
#194 = CIRCLE ( 'NONE', #107, 0.9000000000000004663 ) ;
#195 = ORIENTED_EDGE ( 'NONE', *, *, #8, .F. ) ;
#196 = CALENDAR_DATE ( 2021, 6, 10 ) ;
#197 = AXIS2_PLACEMENT_3D ( 'NONE', #74, #183, #44 ) ;
#198 = CC_DESIGN_DATE_AND_TIME_ASSIGNMENT ( #28, #171, ( #100 ) ) ;
#199 =( NAMED_UNIT ( * ) PLANE_ANGLE_UNIT ( ) SI_UNIT ( $, .RADIAN. ) );
#200 = COORDINATED_UNIVERSAL_TIME_OFFSET ( 1, 0, .AHEAD. ) ;
#201 = LOCAL_TIME ( 13, 20, 23.00000000000000000, #45 ) ;
#202 = PERSON_AND_ORGANIZATION ( #153, #122 ) ;
#203 = PERSON_AND_ORGANIZATION_ROLE ( 'creator' ) ;
ENDSEC;
END-ISO-10303-21;
