ISO-10303-21;
HEADER;
FILE_DESCRIPTION (( 'STEP AP203' ),
    '1' );
FILE_NAME ('55649.step',
    '2021-10-06T11:20:21',
    ( '' ),
    ( '' ),
    'SwSTEP 2.0',
    'SolidWorks 2019',
    '' );
FILE_SCHEMA (( 'CONFIG_CONTROL_DESIGN' ));
ENDSEC;

DATA;
#1 = CARTESIAN_POINT ( 'NONE',  ( 1.872320159599010950E-15, 1.149999999999995248, 0.5362538068782533029 ) ) ;
#2 = DIRECTION ( 'NONE',  ( 3.349443381543032545E-31, 1.000000000000000000, 9.427844978134859644E-17 ) ) ;
#3 = AXIS2_PLACEMENT_3D ( 'NONE', #125, #156, #43 ) ;
#4 = APPROVAL_STATUS ( 'not_yet_approved' ) ;
#5 = APPROVAL ( #4, 'UNSPECIFIED' ) ;
#6 = LOCAL_TIME ( 13, 20, 21.00000000000000000, #83 ) ;
#7 = COORDINATED_UNIVERSAL_TIME_OFFSET ( 1, 0, .AHEAD. ) ;
#8 = ORIENTED_EDGE ( 'NONE', *, *, #42, .F. ) ;
#9 = CC_DESIGN_PERSON_AND_ORGANIZATION_ASSIGNMENT ( #100, #49, ( #106 ) ) ;
#10 = DESIGN_CONTEXT ( 'detailed design', #67, 'design' ) ;
#11 = PERSON ( 'UNSPECIFIED', 'UNSPECIFIED', 'UNSPECIFIED', ('UNSPECIFIED'), ('UNSPECIFIED'), ('UNSPECIFIED') ) ;
#12 = FACE_OUTER_BOUND ( 'NONE', #162, .T. ) ;
#13 = CARTESIAN_POINT ( 'NONE',  ( 5.586370142149013368E-14, -1.959434878635765131E-15, 16.00000000000000000 ) ) ;
#14 = CARTESIAN_POINT ( 'NONE',  ( 1.386118091520723879E-13, -4.861847792614992166E-15, 39.69999999999999574 ) ) ;
#15 = FACE_OUTER_BOUND ( 'NONE', #90, .T. ) ;
#16 = CARTESIAN_POINT ( 'NONE',  ( 5.586370142149013368E-14, 1.149999999999995248, 16.00000000000000000 ) ) ;
#17 = EDGE_CURVE ( 'NONE', #138, #138, #87, .T. ) ;
#18 = PERSON_AND_ORGANIZATION ( #11, #84 ) ;
#19 = APPROVAL_PERSON_ORGANIZATION ( #18, #5, #48 ) ;
#20 = PERSON_AND_ORGANIZATION ( #11, #84 ) ;
#21 = DATE_AND_TIME ( #170, #195 ) ;
#22 = LOCAL_TIME ( 13, 20, 21.00000000000000000, #7 ) ;
#23 =( NAMED_UNIT ( * ) PLANE_ANGLE_UNIT ( ) SI_UNIT ( $, .RADIAN. ) );
#24 = ORIENTED_EDGE ( 'NONE', *, *, #42, .T. ) ;
#25 = CARTESIAN_POINT ( 'NONE',  ( 5.586370142149013368E-14, 8.623618750305630612E-33, 16.00000000000000000 ) ) ;
#26 = AXIS2_PLACEMENT_3D ( 'NONE', #186, #185, #78 ) ;
#27 = DIRECTION ( 'NONE',  ( -3.491481338843133355E-15, 1.224646799147353207E-16, -1.000000000000000000 ) ) ;
#28 = FACE_OUTER_BOUND ( 'NONE', #74, .T. ) ;
#29 = DIRECTION ( 'NONE',  ( -3.491481338843133355E-15, 1.224646799147353207E-16, -1.000000000000000000 ) ) ;
#30 = CONICAL_SURFACE ( 'NONE', #173, 0.8500000000000001998, 0.7853981633974452814 ) ;
#31 = DIRECTION ( 'NONE',  ( -4.275831445896958607E-31, -1.000000000000000000, -1.224646799147353207E-16 ) ) ;
#32 =( NAMED_UNIT ( * ) SI_UNIT ( $, .STERADIAN. ) SOLID_ANGLE_UNIT ( ) );
#33 = AXIS2_PLACEMENT_3D ( 'NONE', #41, #29, #203 ) ;
#34 = CC_DESIGN_PERSON_AND_ORGANIZATION_ASSIGNMENT ( #129, #190, ( #189 ) ) ;
#35 = PERSON_AND_ORGANIZATION ( #11, #84 ) ;
#36 = PRODUCT_DEFINITION_SHAPE ( 'NONE', 'NONE',  #176 ) ;
#37 =( LENGTH_UNIT ( ) NAMED_UNIT ( * ) SI_UNIT ( .MILLI., .METRE. ) );
#38 = AXIS2_PLACEMENT_3D ( 'NONE', #124, #167, #109 ) ;
#39 = ORIENTED_EDGE ( 'NONE', *, *, #17, .T. ) ;
#40 = LOCAL_TIME ( 13, 20, 21.00000000000000000, #85 ) ;
#41 = CARTESIAN_POINT ( 'NONE',  ( 5.586370142149013368E-14, -1.959434878635765131E-15, 16.00000000000000000 ) ) ;
#42 = EDGE_CURVE ( 'NONE', #62, #62, #121, .T. ) ;
#43 = DIRECTION ( 'NONE',  ( 0.0000000000000000000, 1.000000000000000000, 0.0000000000000000000 ) ) ;
#44 = FACE_OUTER_BOUND ( 'NONE', #151, .T. ) ;
#45 = DIRECTION ( 'NONE',  ( 4.275831445896957731E-31, 1.000000000000000000, 1.224646799147353207E-16 ) ) ;
#46 = DIRECTION ( 'NONE',  ( 4.275831445896958607E-31, 1.000000000000000000, 1.224646799147353207E-16 ) ) ;
#47 = DATE_AND_TIME ( #114, #6 ) ;
#48 = APPROVAL_ROLE ( '' ) ;
#49 = PERSON_AND_ORGANIZATION_ROLE ( 'design_supplier' ) ;
#50 = DATE_AND_TIME ( #68, #22 ) ;
#51 = APPROVAL ( #116, 'UNSPECIFIED' ) ;
#52 = COORDINATED_UNIVERSAL_TIME_OFFSET ( 1, 0, .AHEAD. ) ;
#53 = AXIS2_PLACEMENT_3D ( 'NONE', #25, #111, #155 ) ;
#54 = SHAPE_DEFINITION_REPRESENTATION ( #36, #70 ) ;
#55 = UNCERTAINTY_MEASURE_WITH_UNIT (LENGTH_MEASURE( 1.000000000000000082E-05 ), #37, 'distance_accuracy_value', 'NONE');
#56 = LOCAL_TIME ( 13, 20, 21.00000000000000000, #192 ) ;
#57 = ORIENTED_EDGE ( 'NONE', *, *, #135, .T. ) ;
#58 = FACE_OUTER_BOUND ( 'NONE', #105, .T. ) ;
#59 = CARTESIAN_POINT ( 'NONE',  ( 5.586370142149013368E-14, 1.149999999999995248, 16.00000000000000000 ) ) ;
#60 = DIRECTION ( 'NONE',  ( 0.0000000000000000000, 1.000000000000000000, 0.0000000000000000000 ) ) ;
#61 = APPROVAL ( #131, 'UNSPECIFIED' ) ;
#62 = VERTEX_POINT ( 'NONE', #16 ) ;
#63 = CYLINDRICAL_SURFACE ( 'NONE', #110, 1.149999999999996136 ) ;
#64 = AXIS2_PLACEMENT_3D ( 'NONE', #13, #107, #139 ) ;
#65 = APPLICATION_PROTOCOL_DEFINITION ( 'international standard', 'config_control_design', 1994, #67 ) ;
#66 = PERSON_AND_ORGANIZATION_ROLE ( 'classification_officer' ) ;
#67 = APPLICATION_CONTEXT ( 'configuration controlled 3d designs of mechanical parts and assemblies' ) ;
#68 = CALENDAR_DATE ( 2021, 6, 10 ) ;
#69 = PRODUCT_RELATED_PRODUCT_CATEGORY ( 'detail', '', ( #189 ) ) ;
#70 = ADVANCED_BREP_SHAPE_REPRESENTATION ( '55649', ( #71, #134, #118 ), #147 ) ;
#71 = MANIFOLD_SOLID_BREP ( 'Corps-Déplacer/Copier1[1]', #73 ) ;
#72 = ORIENTED_EDGE ( 'NONE', *, *, #158, .F. ) ;
#73 = CLOSED_SHELL ( 'NONE', ( #184, #172, #108, #119 ) ) ;
#74 = EDGE_LOOP ( 'NONE', ( #163 ) ) ;
#75 = CIRCLE ( 'NONE', #33, 1.149999999999997247 ) ;
#76 = CC_DESIGN_PERSON_AND_ORGANIZATION_ASSIGNMENT ( #35, #143, ( #106 ) ) ;
#77 = DIRECTION ( 'NONE',  ( -3.491481338843133355E-15, 1.224646799147353207E-16, -1.000000000000000000 ) ) ;
#78 = DIRECTION ( 'NONE',  ( 4.275831445896958607E-31, 1.000000000000000000, 1.224646799147353207E-16 ) ) ;
#79 = APPROVAL_PERSON_ORGANIZATION ( #101, #61, #193 ) ;
#80 = DIRECTION ( 'NONE',  ( 0.0000000000000000000, 1.000000000000000000, 0.0000000000000000000 ) ) ;
#81 = DIRECTION ( 'NONE',  ( -3.491481338843133355E-15, 1.224646799147353207E-16, -1.000000000000000000 ) ) ;
#82 = VERTEX_POINT ( 'NONE', #181 ) ;
#83 = COORDINATED_UNIVERSAL_TIME_OFFSET ( 1, 0, .AHEAD. ) ;
#84 = ORGANIZATION ( 'UNSPECIFIED', 'UNSPECIFIED', '' ) ;
#85 = COORDINATED_UNIVERSAL_TIME_OFFSET ( 1, 0, .AHEAD. ) ;
#86 = PERSON_AND_ORGANIZATION ( #11, #84 ) ;
#87 = CIRCLE ( 'NONE', #92, 1.149999999999995248 ) ;
#88 = MECHANICAL_CONTEXT ( 'NONE', #180, 'mechanical' ) ;
#89 = CIRCLE ( 'NONE', #202, 1.149999999999999911 ) ;
#90 = EDGE_LOOP ( 'NONE', ( #122 ) ) ;
#91 = CC_DESIGN_PERSON_AND_ORGANIZATION_ASSIGNMENT ( #128, #194, ( #176 ) ) ;
#92 = AXIS2_PLACEMENT_3D ( 'NONE', #169, #27, #2 ) ;
#93 = FACE_OUTER_BOUND ( 'NONE', #104, .T. ) ;
#94 = CARTESIAN_POINT ( 'NONE',  ( 1.396592535537253342E-13, 6.373979076312823674E-33, 40.00000000000000000 ) ) ;
#95 = CARTESIAN_POINT ( 'NONE',  ( 1.396592535537253342E-13, -4.898587196589413026E-15, 40.00000000000000000 ) ) ;
#96 = CARTESIAN_POINT ( 'NONE',  ( 5.586370142149013368E-14, 8.623618750305630612E-33, 16.00000000000000000 ) ) ;
#97 = PLANE ( 'NONE',  #164 ) ;
#98 = CALENDAR_DATE ( 2021, 6, 10 ) ;
#99 = APPLICATION_PROTOCOL_DEFINITION ( 'international standard', 'config_control_design', 1994, #180 ) ;
#100 = PERSON_AND_ORGANIZATION ( #11, #84 ) ;
#101 = PERSON_AND_ORGANIZATION ( #11, #84 ) ;
#102 = CC_DESIGN_APPROVAL ( #5, ( #106 ) ) ;
#103 = ADVANCED_FACE ( 'NONE', ( #200 ), #178, .T. ) ;
#104 = EDGE_LOOP ( 'NONE', ( #72 ) ) ;
#105 = EDGE_LOOP ( 'NONE', ( #126 ) ) ;
#106 = PRODUCT_DEFINITION_FORMATION_WITH_SPECIFIED_SOURCE ( 'ANY', '', #189, .NOT_KNOWN. ) ;
#107 = DIRECTION ( 'NONE',  ( -3.491481338843133355E-15, 1.224646799147353207E-16, -1.000000000000000000 ) ) ;
#108 = ADVANCED_FACE ( 'NONE', ( #28, #188 ), #30, .T. ) ;
#109 = DIRECTION ( 'NONE',  ( -3.349443381543032545E-31, -1.000000000000000000, -9.427844978134859644E-17 ) ) ;
#110 = AXIS2_PLACEMENT_3D ( 'NONE', #140, #77, #45 ) ;
#111 = DIRECTION ( 'NONE',  ( 3.491481338843133355E-15, -1.224646799147353207E-16, 1.000000000000000000 ) ) ;
#112 = DIRECTION ( 'NONE',  ( 3.491481338843133355E-15, -1.224646799147353207E-16, 1.000000000000000000 ) ) ;
#113 = APPROVAL_DATE_TIME ( #159, #61 ) ;
#114 = CALENDAR_DATE ( 2021, 6, 10 ) ;
#115 = CC_DESIGN_APPROVAL ( #51, ( #133 ) ) ;
#116 = APPROVAL_STATUS ( 'not_yet_approved' ) ;
#117 = CARTESIAN_POINT ( 'NONE',  ( 0.0000000000000000000, 0.0000000000000000000, 0.0000000000000000000 ) ) ;
#118 = AXIS2_PLACEMENT_3D ( 'NONE', #117, #171, #148 ) ;
#119 = ADVANCED_FACE ( 'NONE', ( #93 ), #157, .F. ) ;
#120 = EDGE_LOOP ( 'NONE', ( #152 ) ) ;
#121 = CIRCLE ( 'NONE', #64, 1.149999999999997247 ) ;
#122 = ORIENTED_EDGE ( 'NONE', *, *, #154, .T. ) ;
#123 = CYLINDRICAL_SURFACE ( 'NONE', #26, 1.149999999999998579 ) ;
#124 = CARTESIAN_POINT ( 'NONE',  ( 1.872320159599010556E-15, -6.567215081240356911E-17, 0.5362538068782531919 ) ) ;
#125 = CARTESIAN_POINT ( 'NONE',  ( 1.396592535537253342E-13, -4.898587196589413026E-15, 40.00000000000000000 ) ) ;
#126 = ORIENTED_EDGE ( 'NONE', *, *, #135, .F. ) ;
#127 = CARTESIAN_POINT ( 'NONE',  ( 1.396592535537253342E-13, 0.8499999999999953149, 40.00000000000000000 ) ) ;
#128 = PERSON_AND_ORGANIZATION ( #11, #84 ) ;
#129 = PERSON_AND_ORGANIZATION ( #11, #84 ) ;
#130 = DATE_TIME_ROLE ( 'classification_date' ) ;
#131 = APPROVAL_STATUS ( 'not_yet_approved' ) ;
#132 = EDGE_LOOP ( 'NONE', ( #24 ) ) ;
#133 = SECURITY_CLASSIFICATION ( '', '', #177 ) ;
#134 = MANIFOLD_SOLID_BREP ( 'Corps-Déplacer/Copier1[2]', #197 ) ;
#135 = EDGE_CURVE ( 'NONE', #166, #166, #75, .T. ) ;
#136 = EDGE_LOOP ( 'NONE', ( #39 ) ) ;
#137 = FACE_OUTER_BOUND ( 'NONE', #196, .T. ) ;
#138 = VERTEX_POINT ( 'NONE', #1 ) ;
#139 = DIRECTION ( 'NONE',  ( 0.0000000000000000000, 1.000000000000000000, 0.0000000000000000000 ) ) ;
#140 = CARTESIAN_POINT ( 'NONE',  ( 0.0000000000000000000, 0.0000000000000000000, 0.0000000000000000000 ) ) ;
#141 = CC_DESIGN_DATE_AND_TIME_ASSIGNMENT ( #160, #130, ( #133 ) ) ;
#142 = VERTEX_POINT ( 'NONE', #127 ) ;
#143 = PERSON_AND_ORGANIZATION_ROLE ( 'creator' ) ;
#144 = CC_DESIGN_DATE_AND_TIME_ASSIGNMENT ( #21, #174, ( #176 ) ) ;
#145 = CALENDAR_DATE ( 2021, 6, 10 ) ;
#146 = APPROVAL_ROLE ( '' ) ;
#147 =( GEOMETRIC_REPRESENTATION_CONTEXT ( 3 ) GLOBAL_UNCERTAINTY_ASSIGNED_CONTEXT ( ( #55 ) ) GLOBAL_UNIT_ASSIGNED_CONTEXT ( ( #37, #23, #32 ) ) REPRESENTATION_CONTEXT ( 'NONE', 'WORKASPACE' ) );
#148 = DIRECTION ( 'NONE',  ( 1.000000000000000000, 0.0000000000000000000, 0.0000000000000000000 ) ) ;
#149 = ADVANCED_FACE ( 'NONE', ( #58 ), #97, .T. ) ;
#150 = ORIENTED_EDGE ( 'NONE', *, *, #17, .F. ) ;
#151 = EDGE_LOOP ( 'NONE', ( #57 ) ) ;
#152 = ORIENTED_EDGE ( 'NONE', *, *, #158, .T. ) ;
#153 = PLANE ( 'NONE',  #53 ) ;
#154 = EDGE_CURVE ( 'NONE', #82, #82, #89, .T. ) ;
#155 = DIRECTION ( 'NONE',  ( -4.275831445896958607E-31, -1.000000000000000000, -1.224646799147353207E-16 ) ) ;
#156 = DIRECTION ( 'NONE',  ( -3.491481338843133355E-15, 1.224646799147353207E-16, -1.000000000000000000 ) ) ;
#157 = PLANE ( 'NONE',  #165 ) ;
#158 = EDGE_CURVE ( 'NONE', #142, #142, #187, .T. ) ;
#159 = DATE_AND_TIME ( #98, #56 ) ;
#160 = DATE_AND_TIME ( #145, #40 ) ;
#161 = CC_DESIGN_PERSON_AND_ORGANIZATION_ASSIGNMENT ( #20, #66, ( #133 ) ) ;
#162 = EDGE_LOOP ( 'NONE', ( #150 ) ) ;
#163 = ORIENTED_EDGE ( 'NONE', *, *, #154, .F. ) ;
#164 = AXIS2_PLACEMENT_3D ( 'NONE', #96, #112, #31 ) ;
#165 = AXIS2_PLACEMENT_3D ( 'NONE', #94, #168, #46 ) ;
#166 = VERTEX_POINT ( 'NONE', #59 ) ;
#167 = DIRECTION ( 'NONE',  ( 3.491481338843133355E-15, -1.224646799147353207E-16, 1.000000000000000000 ) ) ;
#168 = DIRECTION ( 'NONE',  ( -3.491481338843133355E-15, 1.224646799147353207E-16, -1.000000000000000000 ) ) ;
#169 = CARTESIAN_POINT ( 'NONE',  ( 1.872320159599010556E-15, -6.567215081240356911E-17, 0.5362538068782531919 ) ) ;
#170 = CALENDAR_DATE ( 2021, 6, 10 ) ;
#171 = DIRECTION ( 'NONE',  ( 0.0000000000000000000, 0.0000000000000000000, 1.000000000000000000 ) ) ;
#172 = ADVANCED_FACE ( 'NONE', ( #137, #15 ), #123, .T. ) ;
#173 = AXIS2_PLACEMENT_3D ( 'NONE', #95, #81, #60 ) ;
#174 = DATE_TIME_ROLE ( 'creation_date' ) ;
#175 = APPROVAL_DATE_TIME ( #47, #5 ) ;
#176 = PRODUCT_DEFINITION ( 'UNKNOWN', '', #106, #10 ) ;
#177 = SECURITY_CLASSIFICATION_LEVEL ( 'unclassified' ) ;
#178 = CONICAL_SURFACE ( 'NONE', #38, 1.149999999999995248, 1.134464013796309123 ) ;
#179 = CC_DESIGN_APPROVAL ( #61, ( #176 ) ) ;
#180 = APPLICATION_CONTEXT ( 'configuration controlled 3d designs of mechanical parts and assemblies' ) ;
#181 = CARTESIAN_POINT ( 'NONE',  ( 1.386118091520723879E-13, 1.149999999999995248, 39.69999999999999574 ) ) ;
#182 = CC_DESIGN_SECURITY_CLASSIFICATION ( #133, ( #106 ) ) ;
#183 = DIRECTION ( 'NONE',  ( -3.491481338843133355E-15, 1.224646799147353207E-16, -1.000000000000000000 ) ) ;
#184 = ADVANCED_FACE ( 'NONE', ( #201 ), #153, .F. ) ;
#185 = DIRECTION ( 'NONE',  ( -3.491481338843133355E-15, 1.224646799147353207E-16, -1.000000000000000000 ) ) ;
#186 = CARTESIAN_POINT ( 'NONE',  ( 0.0000000000000000000, 0.0000000000000000000, 0.0000000000000000000 ) ) ;
#187 = CIRCLE ( 'NONE', #3, 0.8500000000000001998 ) ;
#188 = FACE_BOUND ( 'NONE', #120, .T. ) ;
#189 = PRODUCT ( '55649', '55649', '', ( #88 ) ) ;
#190 = PERSON_AND_ORGANIZATION_ROLE ( 'design_owner' ) ;
#191 = APPROVAL_PERSON_ORGANIZATION ( #86, #51, #146 ) ;
#192 = COORDINATED_UNIVERSAL_TIME_OFFSET ( 1, 0, .AHEAD. ) ;
#193 = APPROVAL_ROLE ( '' ) ;
#194 = PERSON_AND_ORGANIZATION_ROLE ( 'creator' ) ;
#195 = LOCAL_TIME ( 13, 20, 21.00000000000000000, #52 ) ;
#196 = EDGE_LOOP ( 'NONE', ( #8 ) ) ;
#197 = CLOSED_SHELL ( 'NONE', ( #103, #198, #149 ) ) ;
#198 = ADVANCED_FACE ( 'NONE', ( #12, #44 ), #63, .T. ) ;
#199 = APPROVAL_DATE_TIME ( #50, #51 ) ;
#200 = FACE_OUTER_BOUND ( 'NONE', #136, .T. ) ;
#201 = FACE_OUTER_BOUND ( 'NONE', #132, .T. ) ;
#202 = AXIS2_PLACEMENT_3D ( 'NONE', #14, #183, #80 ) ;
#203 = DIRECTION ( 'NONE',  ( 0.0000000000000000000, 1.000000000000000000, 0.0000000000000000000 ) ) ;
ENDSEC;
END-ISO-10303-21;
