ISO-10303-21;
HEADER;
FILE_DESCRIPTION (( 'STEP AP203' ),
    '1' );
FILE_NAME ('55647.step',
    '2021-10-06T11:20:19',
    ( '' ),
    ( '' ),
    'SwSTEP 2.0',
    'SolidWorks 2019',
    '' );
FILE_SCHEMA (( 'CONFIG_CONTROL_DESIGN' ));
ENDSEC;

DATA;
#1 = COORDINATED_UNIVERSAL_TIME_OFFSET ( 1, 0, .AHEAD. ) ;
#2 = DIRECTION ( 'NONE',  ( 0.0000000000000000000, 1.000000000000000000, 0.0000000000000000000 ) ) ;
#3 = EDGE_LOOP ( 'NONE', ( #143 ) ) ;
#4 = EDGE_CURVE ( 'NONE', #60, #60, #122, .T. ) ;
#5 = CARTESIAN_POINT ( 'NONE',  ( 1.396592535537253342E-13, 5.999039130647360640E-33, 40.00000000000000000 ) ) ;
#6 = CARTESIAN_POINT ( 'NONE',  ( 5.586370142149013368E-14, -1.959434878635765131E-15, 16.00000000000000000 ) ) ;
#7 = CARTESIAN_POINT ( 'NONE',  ( 1.790914935268619016E-15, -6.281683990751646706E-17, 0.5129384239705031545 ) ) ;
#8 = VERTEX_POINT ( 'NONE', #41 ) ;
#9 = AXIS2_PLACEMENT_3D ( 'NONE', #66, #163, #135 ) ;
#10 =( NAMED_UNIT ( * ) SI_UNIT ( $, .STERADIAN. ) SOLID_ANGLE_UNIT ( ) );
#11 = APPROVAL_ROLE ( '' ) ;
#12 = ADVANCED_FACE ( 'NONE', ( #180 ), #169, .T. ) ;
#13 = CARTESIAN_POINT ( 'NONE',  ( 5.586370142149013368E-14, 1.099999999999995426, 16.00000000000000000 ) ) ;
#14 = CALENDAR_DATE ( 2021, 6, 10 ) ;
#15 = APPROVAL_ROLE ( '' ) ;
#16 = APPROVAL_DATE_TIME ( #155, #32 ) ;
#17 = CIRCLE ( 'NONE', #9, 0.8000000000000004885 ) ;
#18 = LOCAL_TIME ( 13, 20, 19.00000000000000000, #203 ) ;
#19 = DATE_TIME_ROLE ( 'classification_date' ) ;
#20 = LOCAL_TIME ( 13, 20, 19.00000000000000000, #176 ) ;
#21 = FACE_OUTER_BOUND ( 'NONE', #84, .T. ) ;
#22 = DIRECTION ( 'NONE',  ( 3.491481338843133355E-15, -1.224646799147353207E-16, 1.000000000000000000 ) ) ;
#23 = AXIS2_PLACEMENT_3D ( 'NONE', #103, #114, #73 ) ;
#24 = DIRECTION ( 'NONE',  ( 0.0000000000000000000, 1.000000000000000000, 0.0000000000000000000 ) ) ;
#25 = DIRECTION ( 'NONE',  ( -3.491481338843133355E-15, 1.224646799147353207E-16, -1.000000000000000000 ) ) ;
#26 = CLOSED_SHELL ( 'NONE', ( #30, #189, #182, #35 ) ) ;
#27 = DIRECTION ( 'NONE',  ( -3.491481338843133355E-15, 1.224646799147353207E-16, -1.000000000000000000 ) ) ;
#28 = APPROVAL_DATE_TIME ( #177, #113 ) ;
#29 = PERSON_AND_ORGANIZATION ( #160, #31 ) ;
#30 = ADVANCED_FACE ( 'NONE', ( #112 ), #70, .F. ) ;
#31 = ORGANIZATION ( 'UNSPECIFIED', 'UNSPECIFIED', '' ) ;
#32 = APPROVAL ( #57, 'UNSPECIFIED' ) ;
#33 = CALENDAR_DATE ( 2021, 6, 10 ) ;
#34 = CARTESIAN_POINT ( 'NONE',  ( 5.586370142149013368E-14, 8.248678804640168947E-33, 16.00000000000000000 ) ) ;
#35 = ADVANCED_FACE ( 'NONE', ( #21 ), #85, .F. ) ;
#36 = ORIENTED_EDGE ( 'NONE', *, *, #4, .T. ) ;
#37 = EDGE_LOOP ( 'NONE', ( #191 ) ) ;
#38 = EDGE_LOOP ( 'NONE', ( #123 ) ) ;
#39 = AXIS2_PLACEMENT_3D ( 'NONE', #94, #68, #164 ) ;
#40 = FACE_OUTER_BOUND ( 'NONE', #183, .T. ) ;
#41 = CARTESIAN_POINT ( 'NONE',  ( 5.586370142149013368E-14, 1.099999999999995426, 16.00000000000000000 ) ) ;
#42 = CC_DESIGN_DATE_AND_TIME_ASSIGNMENT ( #48, #107, ( #120 ) ) ;
#43 = CARTESIAN_POINT ( 'NONE',  ( 0.0000000000000000000, 0.0000000000000000000, 0.0000000000000000000 ) ) ;
#44 = COORDINATED_UNIVERSAL_TIME_OFFSET ( 1, 0, .AHEAD. ) ;
#45 = FACE_OUTER_BOUND ( 'NONE', #111, .T. ) ;
#46 = APPROVAL_DATE_TIME ( #64, #62 ) ;
#47 = CC_DESIGN_APPROVAL ( #62, ( #83 ) ) ;
#48 = DATE_AND_TIME ( #14, #18 ) ;
#49 = PERSON_AND_ORGANIZATION_ROLE ( 'design_supplier' ) ;
#50 = ORIENTED_EDGE ( 'NONE', *, *, #138, .T. ) ;
#51 = AXIS2_PLACEMENT_3D ( 'NONE', #34, #52, #96 ) ;
#52 = DIRECTION ( 'NONE',  ( 3.491481338843133355E-15, -1.224646799147353207E-16, 1.000000000000000000 ) ) ;
#53 = CARTESIAN_POINT ( 'NONE',  ( 1.386118091520723879E-13, -4.861847792614992166E-15, 39.69999999999999574 ) ) ;
#54 = CARTESIAN_POINT ( 'NONE',  ( 5.586370142149013368E-14, -1.959434878635765131E-15, 16.00000000000000000 ) ) ;
#55 = DESIGN_CONTEXT ( 'detailed design', #178, 'design' ) ;
#56 = FACE_OUTER_BOUND ( 'NONE', #179, .T. ) ;
#57 = APPROVAL_STATUS ( 'not_yet_approved' ) ;
#58 = FACE_BOUND ( 'NONE', #38, .T. ) ;
#59 = CIRCLE ( 'NONE', #95, 1.099999999999997424 ) ;
#60 = VERTEX_POINT ( 'NONE', #134 ) ;
#61 = PERSON_AND_ORGANIZATION ( #160, #31 ) ;
#62 = APPROVAL ( #63, 'UNSPECIFIED' ) ;
#63 = APPROVAL_STATUS ( 'not_yet_approved' ) ;
#64 = DATE_AND_TIME ( #119, #126 ) ;
#65 = CONICAL_SURFACE ( 'NONE', #195, 0.8000000000000004885, 0.7853981633974452814 ) ;
#66 = CARTESIAN_POINT ( 'NONE',  ( 1.396592535537253342E-13, -4.898587196589413026E-15, 40.00000000000000000 ) ) ;
#67 =( GEOMETRIC_REPRESENTATION_CONTEXT ( 3 ) GLOBAL_UNCERTAINTY_ASSIGNED_CONTEXT ( ( #129 ) ) GLOBAL_UNIT_ASSIGNED_CONTEXT ( ( #154, #188, #10 ) ) REPRESENTATION_CONTEXT ( 'NONE', 'WORKASPACE' ) );
#68 = DIRECTION ( 'NONE',  ( 3.491481338843133355E-15, -1.224646799147353207E-16, 1.000000000000000000 ) ) ;
#69 = ADVANCED_FACE ( 'NONE', ( #99 ), #78, .T. ) ;
#70 = PLANE ( 'NONE',  #39 ) ;
#71 = CARTESIAN_POINT ( 'NONE',  ( 1.396592535537253342E-13, 0.7999999999999956035, 40.00000000000000000 ) ) ;
#72 = APPROVAL_PERSON_ORGANIZATION ( #159, #113, #190 ) ;
#73 = DIRECTION ( 'NONE',  ( 4.275831445896958607E-31, 1.000000000000000000, 1.224646799147353207E-16 ) ) ;
#74 = VERTEX_POINT ( 'NONE', #13 ) ;
#75 = AXIS2_PLACEMENT_3D ( 'NONE', #43, #173, #86 ) ;
#76 = COORDINATED_UNIVERSAL_TIME_OFFSET ( 1, 0, .AHEAD. ) ;
#77 = PERSON_AND_ORGANIZATION ( #160, #31 ) ;
#78 = CONICAL_SURFACE ( 'NONE', #185, 1.099999999999995426, 1.134464013796309123 ) ;
#79 = PERSON_AND_ORGANIZATION_ROLE ( 'creator' ) ;
#80 = MANIFOLD_SOLID_BREP ( 'Corps-Déplacer/Copier1[2]', #82 ) ;
#81 = CC_DESIGN_PERSON_AND_ORGANIZATION_ASSIGNMENT ( #201, #49, ( #202 ) ) ;
#82 = CLOSED_SHELL ( 'NONE', ( #69, #200, #12 ) ) ;
#83 = SECURITY_CLASSIFICATION ( '', '', #161 ) ;
#84 = EDGE_LOOP ( 'NONE', ( #181 ) ) ;
#85 = PLANE ( 'NONE',  #172 ) ;
#86 = DIRECTION ( 'NONE',  ( 1.000000000000000000, 0.0000000000000000000, 0.0000000000000000000 ) ) ;
#87 = CARTESIAN_POINT ( 'NONE',  ( 0.0000000000000000000, 0.0000000000000000000, 0.0000000000000000000 ) ) ;
#88 = VERTEX_POINT ( 'NONE', #186 ) ;
#89 = AXIS2_PLACEMENT_3D ( 'NONE', #7, #27, #101 ) ;
#90 = LOCAL_TIME ( 13, 20, 19.00000000000000000, #76 ) ;
#91 = APPROVAL_STATUS ( 'not_yet_approved' ) ;
#92 = CC_DESIGN_PERSON_AND_ORGANIZATION_ASSIGNMENT ( #77, #175, ( #202 ) ) ;
#93 = CALENDAR_DATE ( 2021, 6, 10 ) ;
#94 = CARTESIAN_POINT ( 'NONE',  ( 5.586370142149013368E-14, 8.248678804640168947E-33, 16.00000000000000000 ) ) ;
#95 = AXIS2_PLACEMENT_3D ( 'NONE', #6, #128, #194 ) ;
#96 = DIRECTION ( 'NONE',  ( -4.275831445896958607E-31, -1.000000000000000000, -1.224646799147353207E-16 ) ) ;
#97 = CC_DESIGN_DATE_AND_TIME_ASSIGNMENT ( #162, #19, ( #83 ) ) ;
#98 = ORIENTED_EDGE ( 'NONE', *, *, #141, .F. ) ;
#99 = FACE_OUTER_BOUND ( 'NONE', #37, .T. ) ;
#100 = EDGE_LOOP ( 'NONE', ( #192 ) ) ;
#101 = DIRECTION ( 'NONE',  ( 3.501690807976807030E-31, 1.000000000000000000, 9.856383386231899503E-17 ) ) ;
#102 = AXIS2_PLACEMENT_3D ( 'NONE', #54, #139, #2 ) ;
#103 = CARTESIAN_POINT ( 'NONE',  ( 0.0000000000000000000, 0.0000000000000000000, 0.0000000000000000000 ) ) ;
#104 = CC_DESIGN_PERSON_AND_ORGANIZATION_ASSIGNMENT ( #149, #131, ( #153 ) ) ;
#105 = CYLINDRICAL_SURFACE ( 'NONE', #150, 1.099999999999996314 ) ;
#106 = DIRECTION ( 'NONE',  ( 4.275831445896958607E-31, 1.000000000000000000, 1.224646799147353454E-16 ) ) ;
#107 = DATE_TIME_ROLE ( 'creation_date' ) ;
#108 = CC_DESIGN_APPROVAL ( #113, ( #202 ) ) ;
#109 = PERSON_AND_ORGANIZATION_ROLE ( 'classification_officer' ) ;
#110 = EDGE_LOOP ( 'NONE', ( #142 ) ) ;
#111 = EDGE_LOOP ( 'NONE', ( #36 ) ) ;
#112 = FACE_OUTER_BOUND ( 'NONE', #3, .T. ) ;
#113 = APPROVAL ( #91, 'UNSPECIFIED' ) ;
#114 = DIRECTION ( 'NONE',  ( -3.491481338843133355E-15, 1.224646799147353207E-16, -1.000000000000000000 ) ) ;
#115 = CARTESIAN_POINT ( 'NONE',  ( 1.396592535537253342E-13, -4.898587196589413026E-15, 40.00000000000000000 ) ) ;
#116 = CC_DESIGN_SECURITY_CLASSIFICATION ( #83, ( #202 ) ) ;
#117 = CALENDAR_DATE ( 2021, 6, 10 ) ;
#118 = CIRCLE ( 'NONE', #89, 1.099999999999995426 ) ;
#119 = CALENDAR_DATE ( 2021, 6, 10 ) ;
#120 = PRODUCT_DEFINITION ( 'UNKNOWN', '', #202, #55 ) ;
#121 = SHAPE_DEFINITION_REPRESENTATION ( #166, #168 ) ;
#122 = CIRCLE ( 'NONE', #136, 1.100000000000000311 ) ;
#123 = ORIENTED_EDGE ( 'NONE', *, *, #151, .T. ) ;
#124 = ORIENTED_EDGE ( 'NONE', *, *, #4, .F. ) ;
#125 = DIRECTION ( 'NONE',  ( -3.491481338843133355E-15, 1.224646799147353207E-16, -1.000000000000000000 ) ) ;
#126 = LOCAL_TIME ( 13, 20, 19.00000000000000000, #1 ) ;
#127 = DIRECTION ( 'NONE',  ( 0.0000000000000000000, 1.000000000000000000, 0.0000000000000000000 ) ) ;
#128 = DIRECTION ( 'NONE',  ( -3.491481338843133355E-15, 1.224646799147353207E-16, -1.000000000000000000 ) ) ;
#129 = UNCERTAINTY_MEASURE_WITH_UNIT (LENGTH_MEASURE( 1.000000000000000082E-05 ), #154, 'distance_accuracy_value', 'NONE');
#130 = CC_DESIGN_APPROVAL ( #32, ( #120 ) ) ;
#131 = PERSON_AND_ORGANIZATION_ROLE ( 'design_owner' ) ;
#132 = FACE_OUTER_BOUND ( 'NONE', #144, .T. ) ;
#133 = CC_DESIGN_PERSON_AND_ORGANIZATION_ASSIGNMENT ( #29, #79, ( #120 ) ) ;
#134 = CARTESIAN_POINT ( 'NONE',  ( 1.386118091520723879E-13, 1.099999999999995426, 39.69999999999999574 ) ) ;
#135 = DIRECTION ( 'NONE',  ( 0.0000000000000000000, 1.000000000000000000, 0.0000000000000000000 ) ) ;
#136 = AXIS2_PLACEMENT_3D ( 'NONE', #53, #125, #127 ) ;
#137 = LOCAL_TIME ( 13, 20, 19.00000000000000000, #44 ) ;
#138 = EDGE_CURVE ( 'NONE', #8, #8, #59, .T. ) ;
#139 = DIRECTION ( 'NONE',  ( -3.491481338843133355E-15, 1.224646799147353207E-16, -1.000000000000000000 ) ) ;
#140 = APPROVAL_PERSON_ORGANIZATION ( #197, #32, #11 ) ;
#141 = EDGE_CURVE ( 'NONE', #74, #74, #156, .T. ) ;
#142 = ORIENTED_EDGE ( 'NONE', *, *, #157, .F. ) ;
#143 = ORIENTED_EDGE ( 'NONE', *, *, #141, .T. ) ;
#144 = EDGE_LOOP ( 'NONE', ( #50 ) ) ;
#145 = APPROVAL_PERSON_ORGANIZATION ( #61, #62, #15 ) ;
#146 = DIRECTION ( 'NONE',  ( -3.501690807976807030E-31, -1.000000000000000000, -9.856383386231899503E-17 ) ) ;
#147 = MANIFOLD_SOLID_BREP ( 'Corps-Déplacer/Copier1[1]', #26 ) ;
#148 = MECHANICAL_CONTEXT ( 'NONE', #170, 'mechanical' ) ;
#149 = PERSON_AND_ORGANIZATION ( #160, #31 ) ;
#150 = AXIS2_PLACEMENT_3D ( 'NONE', #87, #174, #106 ) ;
#151 = EDGE_CURVE ( 'NONE', #198, #198, #17, .T. ) ;
#152 = APPLICATION_PROTOCOL_DEFINITION ( 'international standard', 'config_control_design', 1994, #178 ) ;
#153 = PRODUCT ( '55647', '55647', '', ( #148 ) ) ;
#154 =( LENGTH_UNIT ( ) NAMED_UNIT ( * ) SI_UNIT ( .MILLI., .METRE. ) );
#155 = DATE_AND_TIME ( #117, #137 ) ;
#156 = CIRCLE ( 'NONE', #102, 1.099999999999997424 ) ;
#157 = EDGE_CURVE ( 'NONE', #88, #88, #118, .T. ) ;
#158 = PERSON_AND_ORGANIZATION ( #160, #31 ) ;
#159 = PERSON_AND_ORGANIZATION ( #160, #31 ) ;
#160 = PERSON ( 'UNSPECIFIED', 'UNSPECIFIED', 'UNSPECIFIED', ('UNSPECIFIED'), ('UNSPECIFIED'), ('UNSPECIFIED') ) ;
#161 = SECURITY_CLASSIFICATION_LEVEL ( 'unclassified' ) ;
#162 = DATE_AND_TIME ( #93, #20 ) ;
#163 = DIRECTION ( 'NONE',  ( -3.491481338843133355E-15, 1.224646799147353207E-16, -1.000000000000000000 ) ) ;
#164 = DIRECTION ( 'NONE',  ( -4.275831445896958607E-31, -1.000000000000000000, -1.224646799147353207E-16 ) ) ;
#165 = PRODUCT_RELATED_PRODUCT_CATEGORY ( 'detail', '', ( #153 ) ) ;
#166 = PRODUCT_DEFINITION_SHAPE ( 'NONE', 'NONE',  #120 ) ;
#167 = CARTESIAN_POINT ( 'NONE',  ( 1.790914935268619016E-15, -6.281683990751646706E-17, 0.5129384239705031545 ) ) ;
#168 = ADVANCED_BREP_SHAPE_REPRESENTATION ( '55647', ( #147, #80, #75 ), #67 ) ;
#169 = PLANE ( 'NONE',  #51 ) ;
#170 = APPLICATION_CONTEXT ( 'configuration controlled 3d designs of mechanical parts and assemblies' ) ;
#171 = APPLICATION_PROTOCOL_DEFINITION ( 'international standard', 'config_control_design', 1994, #170 ) ;
#172 = AXIS2_PLACEMENT_3D ( 'NONE', #5, #193, #184 ) ;
#173 = DIRECTION ( 'NONE',  ( 0.0000000000000000000, 0.0000000000000000000, 1.000000000000000000 ) ) ;
#174 = DIRECTION ( 'NONE',  ( -3.491481338843133355E-15, 1.224646799147353207E-16, -1.000000000000000000 ) ) ;
#175 = PERSON_AND_ORGANIZATION_ROLE ( 'creator' ) ;
#176 = COORDINATED_UNIVERSAL_TIME_OFFSET ( 1, 0, .AHEAD. ) ;
#177 = DATE_AND_TIME ( #33, #90 ) ;
#178 = APPLICATION_CONTEXT ( 'configuration controlled 3d designs of mechanical parts and assemblies' ) ;
#179 = EDGE_LOOP ( 'NONE', ( #124 ) ) ;
#180 = FACE_OUTER_BOUND ( 'NONE', #100, .T. ) ;
#181 = ORIENTED_EDGE ( 'NONE', *, *, #151, .F. ) ;
#182 = ADVANCED_FACE ( 'NONE', ( #56, #58 ), #65, .T. ) ;
#183 = EDGE_LOOP ( 'NONE', ( #98 ) ) ;
#184 = DIRECTION ( 'NONE',  ( 4.275831445896958607E-31, 1.000000000000000000, 1.224646799147353207E-16 ) ) ;
#185 = AXIS2_PLACEMENT_3D ( 'NONE', #167, #22, #146 ) ;
#186 = CARTESIAN_POINT ( 'NONE',  ( 1.790914935268619410E-15, 1.099999999999995426, 0.5129384239705032655 ) ) ;
#187 = CYLINDRICAL_SURFACE ( 'NONE', #23, 1.099999999999998979 ) ;
#188 =( NAMED_UNIT ( * ) PLANE_ANGLE_UNIT ( ) SI_UNIT ( $, .RADIAN. ) );
#189 = ADVANCED_FACE ( 'NONE', ( #40, #45 ), #187, .T. ) ;
#190 = APPROVAL_ROLE ( '' ) ;
#191 = ORIENTED_EDGE ( 'NONE', *, *, #157, .T. ) ;
#192 = ORIENTED_EDGE ( 'NONE', *, *, #138, .F. ) ;
#193 = DIRECTION ( 'NONE',  ( -3.491481338843133355E-15, 1.224646799147353207E-16, -1.000000000000000000 ) ) ;
#194 = DIRECTION ( 'NONE',  ( 0.0000000000000000000, 1.000000000000000000, 0.0000000000000000000 ) ) ;
#195 = AXIS2_PLACEMENT_3D ( 'NONE', #115, #25, #24 ) ;
#196 = CC_DESIGN_PERSON_AND_ORGANIZATION_ASSIGNMENT ( #158, #109, ( #83 ) ) ;
#197 = PERSON_AND_ORGANIZATION ( #160, #31 ) ;
#198 = VERTEX_POINT ( 'NONE', #71 ) ;
#199 = FACE_OUTER_BOUND ( 'NONE', #110, .T. ) ;
#200 = ADVANCED_FACE ( 'NONE', ( #199, #132 ), #105, .T. ) ;
#201 = PERSON_AND_ORGANIZATION ( #160, #31 ) ;
#202 = PRODUCT_DEFINITION_FORMATION_WITH_SPECIFIED_SOURCE ( 'ANY', '', #153, .NOT_KNOWN. ) ;
#203 = COORDINATED_UNIVERSAL_TIME_OFFSET ( 1, 0, .AHEAD. ) ;
ENDSEC;
END-ISO-10303-21;
