ISO-10303-21;
HEADER;
FILE_DESCRIPTION (( 'STEP AP203' ),
    '1' );
FILE_NAME ('55645.step',
    '2021-10-06T11:20:18',
    ( '' ),
    ( '' ),
    'SwSTEP 2.0',
    'SolidWorks 2019',
    '' );
FILE_SCHEMA (( 'CONFIG_CONTROL_DESIGN' ));
ENDSEC;

DATA;
#1 = FACE_OUTER_BOUND ( 'NONE', #160, .T. ) ;
#2 = EDGE_LOOP ( 'NONE', ( #75 ) ) ;
#3 = PERSON ( 'UNSPECIFIED', 'UNSPECIFIED', 'UNSPECIFIED', ('UNSPECIFIED'), ('UNSPECIFIED'), ('UNSPECIFIED') ) ;
#4 = AXIS2_PLACEMENT_3D ( 'NONE', #182, #198, #130 ) ;
#5 = ORIENTED_EDGE ( 'NONE', *, *, #193, .F. ) ;
#6 = FACE_OUTER_BOUND ( 'NONE', #145, .T. ) ;
#7 = CARTESIAN_POINT ( 'NONE',  ( 1.316288464743861212E-13, 1.049999999999995604, 37.69999999999999574 ) ) ;
#8 = DIRECTION ( 'NONE',  ( 0.0000000000000000000, 1.000000000000000000, 0.0000000000000000000 ) ) ;
#9 = DIRECTION ( 'NONE',  ( 0.0000000000000000000, 1.000000000000000000, 0.0000000000000000000 ) ) ;
#10 = EDGE_CURVE ( 'NONE', #196, #196, #36, .T. ) ;
#11 =( NAMED_UNIT ( * ) SI_UNIT ( $, .STERADIAN. ) SOLID_ANGLE_UNIT ( ) );
#12 = UNCERTAINTY_MEASURE_WITH_UNIT (LENGTH_MEASURE( 1.000000000000000082E-05 ), #42, 'distance_accuracy_value', 'NONE');
#13 = DATE_AND_TIME ( #88, #106 ) ;
#14 = CC_DESIGN_DATE_AND_TIME_ASSIGNMENT ( #13, #71, ( #113 ) ) ;
#15 = DATE_AND_TIME ( #154, #122 ) ;
#16 = AXIS2_PLACEMENT_3D ( 'NONE', #20, #124, #181 ) ;
#17 = CC_DESIGN_APPROVAL ( #144, ( #113 ) ) ;
#18 = PERSON_AND_ORGANIZATION ( #3, #137 ) ;
#19 = ORIENTED_EDGE ( 'NONE', *, *, #170, .F. ) ;
#20 = CARTESIAN_POINT ( 'NONE',  ( 5.586370142149013368E-14, 7.873738858974704545E-33, 16.00000000000000000 ) ) ;
#21 = ORIENTED_EDGE ( 'NONE', *, *, #10, .F. ) ;
#22 = DIRECTION ( 'NONE',  ( -3.491481338843133355E-15, 1.224646799147353207E-16, -1.000000000000000000 ) ) ;
#23 = FACE_OUTER_BOUND ( 'NONE', #49, .T. ) ;
#24 = COORDINATED_UNIVERSAL_TIME_OFFSET ( 1, 0, .AHEAD. ) ;
#25 = VERTEX_POINT ( 'NONE', #165 ) ;
#26 = CC_DESIGN_APPROVAL ( #110, ( #189 ) ) ;
#27 = PERSON_AND_ORGANIZATION_ROLE ( 'design_owner' ) ;
#28 = DATE_AND_TIME ( #104, #188 ) ;
#29 = APPROVAL_PERSON_ORGANIZATION ( #135, #144, #73 ) ;
#30 = PERSON_AND_ORGANIZATION_ROLE ( 'design_supplier' ) ;
#31 = PRODUCT_RELATED_PRODUCT_CATEGORY ( 'detail', '', ( #187 ) ) ;
#32 = PERSON_AND_ORGANIZATION_ROLE ( 'creator' ) ;
#33 = EDGE_CURVE ( 'NONE', #176, #176, #94, .T. ) ;
#34 = ORIENTED_EDGE ( 'NONE', *, *, #10, .T. ) ;
#35 = FACE_OUTER_BOUND ( 'NONE', #2, .T. ) ;
#36 = CIRCLE ( 'NONE', #185, 1.049999999999995604 ) ;
#37 = ORIENTED_EDGE ( 'NONE', *, *, #193, .T. ) ;
#38 = ORIENTED_EDGE ( 'NONE', *, *, #33, .T. ) ;
#39 = DIRECTION ( 'NONE',  ( 3.668437989309036103E-31, 1.000000000000000000, 1.032573497605246662E-16 ) ) ;
#40 = VERTEX_POINT ( 'NONE', #83 ) ;
#41 = DIRECTION ( 'NONE',  ( 1.000000000000000000, 0.0000000000000000000, 0.0000000000000000000 ) ) ;
#42 =( LENGTH_UNIT ( ) NAMED_UNIT ( * ) SI_UNIT ( .MILLI., .METRE. ) );
#43 = ADVANCED_FACE ( 'NONE', ( #53, #141 ), #97, .T. ) ;
#44 = CALENDAR_DATE ( 2021, 6, 10 ) ;
#45 = APPLICATION_CONTEXT ( 'configuration controlled 3d designs of mechanical parts and assemblies' ) ;
#46 = ADVANCED_FACE ( 'NONE', ( #1 ), #203, .F. ) ;
#47 = APPROVAL_STATUS ( 'not_yet_approved' ) ;
#48 = CIRCLE ( 'NONE', #132, 1.049999999999997602 ) ;
#49 = EDGE_LOOP ( 'NONE', ( #5 ) ) ;
#50 =( GEOMETRIC_REPRESENTATION_CONTEXT ( 3 ) GLOBAL_UNCERTAINTY_ASSIGNED_CONTEXT ( ( #12 ) ) GLOBAL_UNIT_ASSIGNED_CONTEXT ( ( #42, #167, #11 ) ) REPRESENTATION_CONTEXT ( 'NONE', 'WORKASPACE' ) );
#51 = PRODUCT_DEFINITION_FORMATION_WITH_SPECIFIED_SOURCE ( 'ANY', '', #187, .NOT_KNOWN. ) ;
#52 = EDGE_LOOP ( 'NONE', ( #34 ) ) ;
#53 = FACE_OUTER_BOUND ( 'NONE', #91, .T. ) ;
#54 = DIRECTION ( 'NONE',  ( -3.491481338843133355E-15, 1.224646799147353207E-16, -1.000000000000000000 ) ) ;
#55 = DIRECTION ( 'NONE',  ( 3.491481338843133355E-15, -1.224646799147353207E-16, 1.000000000000000000 ) ) ;
#56 = CARTESIAN_POINT ( 'NONE',  ( 5.586370142149013368E-14, -1.959434878635765131E-15, 16.00000000000000000 ) ) ;
#57 = COORDINATED_UNIVERSAL_TIME_OFFSET ( 1, 0, .AHEAD. ) ;
#58 = APPROVAL_DATE_TIME ( #74, #144 ) ;
#59 = DATE_AND_TIME ( #44, #177 ) ;
#60 = PERSON_AND_ORGANIZATION_ROLE ( 'classification_officer' ) ;
#61 = DIRECTION ( 'NONE',  ( 3.491481338843133355E-15, -1.224646799147353207E-16, 1.000000000000000000 ) ) ;
#62 = DIRECTION ( 'NONE',  ( -3.491481338843133355E-15, 1.224646799147353207E-16, -1.000000000000000000 ) ) ;
#63 = ORIENTED_EDGE ( 'NONE', *, *, #99, .T. ) ;
#64 = AXIS2_PLACEMENT_3D ( 'NONE', #85, #55, #152 ) ;
#65 = FACE_BOUND ( 'NONE', #175, .T. ) ;
#66 = ADVANCED_FACE ( 'NONE', ( #6, #65 ), #81, .T. ) ;
#67 = CLOSED_SHELL ( 'NONE', ( #138, #43, #116 ) ) ;
#68 = DIRECTION ( 'NONE',  ( -3.491481338843133355E-15, 1.224646799147353207E-16, -1.000000000000000000 ) ) ;
#69 = CARTESIAN_POINT ( 'NONE',  ( 1.316288464743861212E-13, -4.616918432785521081E-15, 37.69999999999999574 ) ) ;
#70 = COORDINATED_UNIVERSAL_TIME_OFFSET ( 1, 0, .AHEAD. ) ;
#71 = DATE_TIME_ROLE ( 'classification_date' ) ;
#72 = AXIS2_PLACEMENT_3D ( 'NONE', #123, #62, #190 ) ;
#73 = APPROVAL_ROLE ( '' ) ;
#74 = DATE_AND_TIME ( #172, #162 ) ;
#75 = ORIENTED_EDGE ( 'NONE', *, *, #99, .F. ) ;
#76 = EDGE_LOOP ( 'NONE', ( #125 ) ) ;
#77 = CARTESIAN_POINT ( 'NONE',  ( 1.709509710938227081E-15, -5.996152900262935268E-17, 0.4896230410627529506 ) ) ;
#78 = CARTESIAN_POINT ( 'NONE',  ( 5.586370142149013368E-14, 7.873738858974704545E-33, 16.00000000000000000 ) ) ;
#79 = DIRECTION ( 'NONE',  ( -3.491481338843133355E-15, 1.224646799147353207E-16, -1.000000000000000000 ) ) ;
#80 = APPROVAL_STATUS ( 'not_yet_approved' ) ;
#81 = CONICAL_SURFACE ( 'NONE', #72, 0.7500000000000003331, 0.7853981633974452814 ) ;
#82 = AXIS2_PLACEMENT_3D ( 'NONE', #151, #79, #129 ) ;
#83 = CARTESIAN_POINT ( 'NONE',  ( 5.586370142149013368E-14, 1.049999999999995604, 16.00000000000000000 ) ) ;
#84 = ADVANCED_BREP_SHAPE_REPRESENTATION ( '55645', ( #184, #191, #109 ), #50 ) ;
#85 = CARTESIAN_POINT ( 'NONE',  ( 1.709509710938227081E-15, -5.996152900262935268E-17, 0.4896230410627529506 ) ) ;
#86 = AXIS2_PLACEMENT_3D ( 'NONE', #95, #93, #194 ) ;
#87 = APPROVAL_ROLE ( '' ) ;
#88 = CALENDAR_DATE ( 2021, 6, 10 ) ;
#89 = APPROVAL ( #47, 'UNSPECIFIED' ) ;
#90 = CIRCLE ( 'NONE', #119, 1.050000000000000044 ) ;
#91 = EDGE_LOOP ( 'NONE', ( #21 ) ) ;
#92 = CC_DESIGN_PERSON_AND_ORGANIZATION_ASSIGNMENT ( #136, #158, ( #189 ) ) ;
#93 = DIRECTION ( 'NONE',  ( -3.491481338843133355E-15, 1.224646799147353207E-16, -1.000000000000000000 ) ) ;
#94 = CIRCLE ( 'NONE', #86, 0.7500000000000003331 ) ;
#95 = CARTESIAN_POINT ( 'NONE',  ( 1.326762908760390423E-13, -4.653657836759941941E-15, 38.00000000000000000 ) ) ;
#96 = ORIENTED_EDGE ( 'NONE', *, *, #33, .F. ) ;
#97 = CYLINDRICAL_SURFACE ( 'NONE', #112, 1.049999999999996714 ) ;
#98 = PLANE ( 'NONE',  #82 ) ;
#99 = EDGE_CURVE ( 'NONE', #25, #25, #174, .T. ) ;
#100 = APPROVAL_PERSON_ORGANIZATION ( #128, #110, #164 ) ;
#101 = CYLINDRICAL_SURFACE ( 'NONE', #4, 1.049999999999998934 ) ;
#102 = MECHANICAL_CONTEXT ( 'NONE', #45, 'mechanical' ) ;
#103 = CC_DESIGN_PERSON_AND_ORGANIZATION_ASSIGNMENT ( #105, #30, ( #51 ) ) ;
#104 = CALENDAR_DATE ( 2021, 6, 10 ) ;
#105 = PERSON_AND_ORGANIZATION ( #3, #137 ) ;
#106 = LOCAL_TIME ( 13, 20, 18.00000000000000000, #118 ) ;
#107 = DIRECTION ( 'NONE',  ( 0.0000000000000000000, 1.000000000000000000, 0.0000000000000000000 ) ) ;
#108 = EDGE_LOOP ( 'NONE', ( #63 ) ) ;
#109 = AXIS2_PLACEMENT_3D ( 'NONE', #199, #179, #41 ) ;
#110 = APPROVAL ( #80, 'UNSPECIFIED' ) ;
#111 = DIRECTION ( 'NONE',  ( -3.491481338843133355E-15, 1.224646799147353207E-16, -1.000000000000000000 ) ) ;
#112 = AXIS2_PLACEMENT_3D ( 'NONE', #161, #22, #127 ) ;
#113 = SECURITY_CLASSIFICATION ( '', '', #139 ) ;
#114 = PERSON_AND_ORGANIZATION ( #3, #137 ) ;
#115 = CARTESIAN_POINT ( 'NONE',  ( 1.326762908760390423E-13, 0.7499999999999956701, 38.00000000000000000 ) ) ;
#116 = ADVANCED_FACE ( 'NONE', ( #35 ), #159, .T. ) ;
#117 = APPLICATION_PROTOCOL_DEFINITION ( 'international standard', 'config_control_design', 1994, #45 ) ;
#118 = COORDINATED_UNIVERSAL_TIME_OFFSET ( 1, 0, .AHEAD. ) ;
#119 = AXIS2_PLACEMENT_3D ( 'NONE', #69, #111, #9 ) ;
#120 = APPROVAL_STATUS ( 'not_yet_approved' ) ;
#121 = DATE_TIME_ROLE ( 'creation_date' ) ;
#122 = LOCAL_TIME ( 13, 20, 18.00000000000000000, #57 ) ;
#123 = CARTESIAN_POINT ( 'NONE',  ( 1.326762908760390423E-13, -4.653657836759941941E-15, 38.00000000000000000 ) ) ;
#124 = DIRECTION ( 'NONE',  ( 3.491481338843133355E-15, -1.224646799147353207E-16, 1.000000000000000000 ) ) ;
#125 = ORIENTED_EDGE ( 'NONE', *, *, #170, .T. ) ;
#126 = EDGE_LOOP ( 'NONE', ( #96 ) ) ;
#127 = DIRECTION ( 'NONE',  ( 4.275831445896958607E-31, 1.000000000000000000, 1.224646799147353207E-16 ) ) ;
#128 = PERSON_AND_ORGANIZATION ( #3, #137 ) ;
#129 = DIRECTION ( 'NONE',  ( 4.275831445896958607E-31, 1.000000000000000000, 1.224646799147353207E-16 ) ) ;
#130 = DIRECTION ( 'NONE',  ( 4.275831445896958607E-31, 1.000000000000000000, 1.224646799147353207E-16 ) ) ;
#131 = CC_DESIGN_PERSON_AND_ORGANIZATION_ASSIGNMENT ( #200, #60, ( #113 ) ) ;
#132 = AXIS2_PLACEMENT_3D ( 'NONE', #56, #68, #8 ) ;
#133 = FACE_OUTER_BOUND ( 'NONE', #126, .T. ) ;
#134 = DESIGN_CONTEXT ( 'detailed design', #197, 'design' ) ;
#135 = PERSON_AND_ORGANIZATION ( #3, #137 ) ;
#136 = PERSON_AND_ORGANIZATION ( #3, #137 ) ;
#137 = ORGANIZATION ( 'UNSPECIFIED', 'UNSPECIFIED', '' ) ;
#138 = ADVANCED_FACE ( 'NONE', ( #150 ), #157, .T. ) ;
#139 = SECURITY_CLASSIFICATION_LEVEL ( 'unclassified' ) ;
#140 = CC_DESIGN_PERSON_AND_ORGANIZATION_ASSIGNMENT ( #114, #27, ( #187 ) ) ;
#141 = FACE_OUTER_BOUND ( 'NONE', #108, .T. ) ;
#142 = CC_DESIGN_SECURITY_CLASSIFICATION ( #113, ( #51 ) ) ;
#143 = DIRECTION ( 'NONE',  ( -3.491481338843133355E-15, 1.224646799147353207E-16, -1.000000000000000000 ) ) ;
#144 = APPROVAL ( #120, 'UNSPECIFIED' ) ;
#145 = EDGE_LOOP ( 'NONE', ( #19 ) ) ;
#146 = DIRECTION ( 'NONE',  ( -4.275831445896958607E-31, -1.000000000000000000, -1.224646799147353207E-16 ) ) ;
#147 = CC_DESIGN_DATE_AND_TIME_ASSIGNMENT ( #59, #121, ( #189 ) ) ;
#148 = VERTEX_POINT ( 'NONE', #7 ) ;
#149 = CARTESIAN_POINT ( 'NONE',  ( 1.709509710938227475E-15, 1.049999999999995604, 0.4896230410627530616 ) ) ;
#150 = FACE_OUTER_BOUND ( 'NONE', #52, .T. ) ;
#151 = CARTESIAN_POINT ( 'NONE',  ( 1.326762908760390423E-13, 5.624099184981898975E-33, 38.00000000000000000 ) ) ;
#152 = DIRECTION ( 'NONE',  ( -3.668437989309036103E-31, -1.000000000000000000, -1.032573497605246662E-16 ) ) ;
#153 = CC_DESIGN_APPROVAL ( #89, ( #51 ) ) ;
#154 = CALENDAR_DATE ( 2021, 6, 10 ) ;
#155 = SHAPE_DEFINITION_REPRESENTATION ( #171, #84 ) ;
#156 = COORDINATED_UNIVERSAL_TIME_OFFSET ( 1, 0, .AHEAD. ) ;
#157 = CONICAL_SURFACE ( 'NONE', #64, 1.049999999999995604, 1.134464013796309123 ) ;
#158 = PERSON_AND_ORGANIZATION_ROLE ( 'creator' ) ;
#159 = PLANE ( 'NONE',  #16 ) ;
#160 = EDGE_LOOP ( 'NONE', ( #37 ) ) ;
#161 = CARTESIAN_POINT ( 'NONE',  ( 0.0000000000000000000, 0.0000000000000000000, 0.0000000000000000000 ) ) ;
#162 = LOCAL_TIME ( 13, 20, 18.00000000000000000, #70 ) ;
#163 = FACE_OUTER_BOUND ( 'NONE', #76, .T. ) ;
#164 = APPROVAL_ROLE ( '' ) ;
#165 = CARTESIAN_POINT ( 'NONE',  ( 5.586370142149013368E-14, 1.049999999999995604, 16.00000000000000000 ) ) ;
#166 = CLOSED_SHELL ( 'NONE', ( #46, #168, #66, #195 ) ) ;
#167 =( NAMED_UNIT ( * ) PLANE_ANGLE_UNIT ( ) SI_UNIT ( $, .RADIAN. ) );
#168 = ADVANCED_FACE ( 'NONE', ( #23, #163 ), #101, .T. ) ;
#169 = APPROVAL_DATE_TIME ( #15, #89 ) ;
#170 = EDGE_CURVE ( 'NONE', #148, #148, #90, .T. ) ;
#171 = PRODUCT_DEFINITION_SHAPE ( 'NONE', 'NONE',  #189 ) ;
#172 = CALENDAR_DATE ( 2021, 6, 10 ) ;
#173 = CARTESIAN_POINT ( 'NONE',  ( 5.586370142149013368E-14, -1.959434878635765131E-15, 16.00000000000000000 ) ) ;
#174 = CIRCLE ( 'NONE', #192, 1.049999999999997602 ) ;
#175 = EDGE_LOOP ( 'NONE', ( #38 ) ) ;
#176 = VERTEX_POINT ( 'NONE', #115 ) ;
#177 = LOCAL_TIME ( 13, 20, 18.00000000000000000, #156 ) ;
#178 = APPLICATION_PROTOCOL_DEFINITION ( 'international standard', 'config_control_design', 1994, #197 ) ;
#179 = DIRECTION ( 'NONE',  ( 0.0000000000000000000, 0.0000000000000000000, 1.000000000000000000 ) ) ;
#180 = CC_DESIGN_PERSON_AND_ORGANIZATION_ASSIGNMENT ( #18, #32, ( #51 ) ) ;
#181 = DIRECTION ( 'NONE',  ( -4.275831445896958607E-31, -1.000000000000000000, -1.224646799147353207E-16 ) ) ;
#182 = CARTESIAN_POINT ( 'NONE',  ( 0.0000000000000000000, 0.0000000000000000000, 0.0000000000000000000 ) ) ;
#183 = APPROVAL_DATE_TIME ( #28, #110 ) ;
#184 = MANIFOLD_SOLID_BREP ( 'Corps-Déplacer/Copier1[1]', #166 ) ;
#185 = AXIS2_PLACEMENT_3D ( 'NONE', #77, #54, #39 ) ;
#186 = PERSON_AND_ORGANIZATION ( #3, #137 ) ;
#187 = PRODUCT ( '55645', '55645', '', ( #102 ) ) ;
#188 = LOCAL_TIME ( 13, 20, 18.00000000000000000, #24 ) ;
#189 = PRODUCT_DEFINITION ( 'UNKNOWN', '', #51, #134 ) ;
#190 = DIRECTION ( 'NONE',  ( 0.0000000000000000000, 1.000000000000000000, 0.0000000000000000000 ) ) ;
#191 = MANIFOLD_SOLID_BREP ( 'Corps-Déplacer/Copier1[2]', #67 ) ;
#192 = AXIS2_PLACEMENT_3D ( 'NONE', #173, #143, #107 ) ;
#193 = EDGE_CURVE ( 'NONE', #40, #40, #48, .T. ) ;
#194 = DIRECTION ( 'NONE',  ( 0.0000000000000000000, 1.000000000000000000, 0.0000000000000000000 ) ) ;
#195 = ADVANCED_FACE ( 'NONE', ( #133 ), #98, .F. ) ;
#196 = VERTEX_POINT ( 'NONE', #149 ) ;
#197 = APPLICATION_CONTEXT ( 'configuration controlled 3d designs of mechanical parts and assemblies' ) ;
#198 = DIRECTION ( 'NONE',  ( -3.491481338843133355E-15, 1.224646799147353207E-16, -1.000000000000000000 ) ) ;
#199 = CARTESIAN_POINT ( 'NONE',  ( 0.0000000000000000000, 0.0000000000000000000, 0.0000000000000000000 ) ) ;
#200 = PERSON_AND_ORGANIZATION ( #3, #137 ) ;
#201 = AXIS2_PLACEMENT_3D ( 'NONE', #78, #61, #146 ) ;
#202 = APPROVAL_PERSON_ORGANIZATION ( #186, #89, #87 ) ;
#203 = PLANE ( 'NONE',  #201 ) ;
ENDSEC;
END-ISO-10303-21;
