ISO-10303-21;
HEADER;
FILE_DESCRIPTION (( 'STEP AP203' ),
    '1' );
FILE_NAME ('55643.step',
    '2021-10-06T11:20:16',
    ( '' ),
    ( '' ),
    'SwSTEP 2.0',
    'SolidWorks 2019',
    '' );
FILE_SCHEMA (( 'CONFIG_CONTROL_DESIGN' ));
ENDSEC;

DATA;
#1 = FACE_OUTER_BOUND ( 'NONE', #73, .T. ) ;
#2 = DIRECTION ( 'NONE',  ( -3.491481338843133355E-15, 1.224646799147353207E-16, -1.000000000000000000 ) ) ;
#3 = AXIS2_PLACEMENT_3D ( 'NONE', #69, #87, #17 ) ;
#4 = CARTESIAN_POINT ( 'NONE',  ( 5.586370142149013368E-14, 0.9999999999999954481, 16.00000000000000000 ) ) ;
#5 = DIRECTION ( 'NONE',  ( -3.491481338843133355E-15, 1.224646799147353207E-16, -1.000000000000000000 ) ) ;
#6 = MANIFOLD_SOLID_BREP ( 'Corps-Déplacer/Copier1[2]', #53 ) ;
#7 = EDGE_CURVE ( 'NONE', #45, #45, #155, .T. ) ;
#8 = UNCERTAINTY_MEASURE_WITH_UNIT (LENGTH_MEASURE( 1.000000000000000082E-05 ), #183, 'distance_accuracy_value', 'NONE');
#9 = AXIS2_PLACEMENT_3D ( 'NONE', #136, #25, #197 ) ;
#10 = ORIENTED_EDGE ( 'NONE', *, *, #130, .F. ) ;
#11 = ORIENTED_EDGE ( 'NONE', *, *, #130, .T. ) ;
#12 = APPROVAL_PERSON_ORGANIZATION ( #145, #175, #61 ) ;
#13 = DIRECTION ( 'NONE',  ( -3.851859888774489222E-31, -1.000000000000000000, -1.084202172485509364E-16 ) ) ;
#14 = APPROVAL_DATE_TIME ( #62, #118 ) ;
#15 = PERSON_AND_ORGANIZATION ( #198, #48 ) ;
#16 = ADVANCED_FACE ( 'NONE', ( #83, #33 ), #68, .T. ) ;
#17 = DIRECTION ( 'NONE',  ( 0.0000000000000000000, 1.000000000000000000, 0.0000000000000000000 ) ) ;
#18 = DATE_AND_TIME ( #80, #85 ) ;
#19 = AXIS2_PLACEMENT_3D ( 'NONE', #124, #5, #41 ) ;
#20 = EDGE_LOOP ( 'NONE', ( #11 ) ) ;
#21 = APPROVAL_STATUS ( 'not_yet_approved' ) ;
#22 = DESIGN_CONTEXT ( 'detailed design', #165, 'design' ) ;
#23 = FACE_BOUND ( 'NONE', #20, .T. ) ;
#24 = EDGE_LOOP ( 'NONE', ( #142 ) ) ;
#25 = DIRECTION ( 'NONE',  ( -3.491481338843133355E-15, 1.224646799147353207E-16, -1.000000000000000000 ) ) ;
#26 = CARTESIAN_POINT ( 'NONE',  ( 1.326762908760390423E-13, 0.6999999999999955147, 38.00000000000000000 ) ) ;
#27 = AXIS2_PLACEMENT_3D ( 'NONE', #167, #63, #106 ) ;
#28 = PERSON_AND_ORGANIZATION_ROLE ( 'creator' ) ;
#29 = PERSON_AND_ORGANIZATION ( #198, #48 ) ;
#30 = COORDINATED_UNIVERSAL_TIME_OFFSET ( 1, 0, .AHEAD. ) ;
#31 = CALENDAR_DATE ( 2021, 6, 10 ) ;
#32 = ADVANCED_FACE ( 'NONE', ( #182, #47 ), #89, .T. ) ;
#33 = FACE_OUTER_BOUND ( 'NONE', #141, .T. ) ;
#34 = EDGE_LOOP ( 'NONE', ( #181 ) ) ;
#35 = CC_DESIGN_PERSON_AND_ORGANIZATION_ASSIGNMENT ( #168, #28, ( #190 ) ) ;
#36 = AXIS2_PLACEMENT_3D ( 'NONE', #166, #70, #133 ) ;
#37 = EDGE_LOOP ( 'NONE', ( #177 ) ) ;
#38 = PRODUCT_DEFINITION_SHAPE ( 'NONE', 'NONE',  #134 ) ;
#39 = CC_DESIGN_PERSON_AND_ORGANIZATION_ASSIGNMENT ( #76, #154, ( #190 ) ) ;
#40 = ADVANCED_FACE ( 'NONE', ( #65 ), #60, .T. ) ;
#41 = DIRECTION ( 'NONE',  ( 4.275831445896958607E-31, 1.000000000000000000, 1.224646799147353207E-16 ) ) ;
#42 = DIRECTION ( 'NONE',  ( 0.0000000000000000000, 0.0000000000000000000, 1.000000000000000000 ) ) ;
#43 = CIRCLE ( 'NONE', #3, 0.9999999999999974465 ) ;
#44 = PERSON_AND_ORGANIZATION_ROLE ( 'design_owner' ) ;
#45 = VERTEX_POINT ( 'NONE', #52 ) ;
#46 = APPROVAL_DATE_TIME ( #128, #140 ) ;
#47 = FACE_OUTER_BOUND ( 'NONE', #122, .T. ) ;
#48 = ORGANIZATION ( 'UNSPECIFIED', 'UNSPECIFIED', '' ) ;
#49 = SHAPE_DEFINITION_REPRESENTATION ( #38, #163 ) ;
#50 = CC_DESIGN_APPROVAL ( #118, ( #190 ) ) ;
#51 = PLANE ( 'NONE',  #196 ) ;
#52 = CARTESIAN_POINT ( 'NONE',  ( 5.586370142149013368E-14, 0.9999999999999954481, 16.00000000000000000 ) ) ;
#53 = CLOSED_SHELL ( 'NONE', ( #40, #16, #103 ) ) ;
#54 = LOCAL_TIME ( 13, 20, 16.00000000000000000, #199 ) ;
#55 = EDGE_LOOP ( 'NONE', ( #160 ) ) ;
#56 = AXIS2_PLACEMENT_3D ( 'NONE', #139, #178, #174 ) ;
#57 =( NAMED_UNIT ( * ) SI_UNIT ( $, .STERADIAN. ) SOLID_ANGLE_UNIT ( ) );
#58 = DATE_TIME_ROLE ( 'creation_date' ) ;
#59 = CC_DESIGN_APPROVAL ( #175, ( #66 ) ) ;
#60 = CONICAL_SURFACE ( 'NONE', #180, 0.9999999999999954481, 1.134464013796309123 ) ;
#61 = APPROVAL_ROLE ( '' ) ;
#62 = DATE_AND_TIME ( #31, #54 ) ;
#63 = DIRECTION ( 'NONE',  ( -3.491481338843133355E-15, 1.224646799147353207E-16, -1.000000000000000000 ) ) ;
#64 = APPLICATION_PROTOCOL_DEFINITION ( 'international standard', 'config_control_design', 1994, #95 ) ;
#65 = FACE_OUTER_BOUND ( 'NONE', #55, .T. ) ;
#66 = SECURITY_CLASSIFICATION ( '', '', #185 ) ;
#67 = CC_DESIGN_DATE_AND_TIME_ASSIGNMENT ( #187, #58, ( #134 ) ) ;
#68 = CYLINDRICAL_SURFACE ( 'NONE', #102, 0.9999999999999965583 ) ;
#69 = CARTESIAN_POINT ( 'NONE',  ( 5.586370142149013368E-14, -1.959434878635765131E-15, 16.00000000000000000 ) ) ;
#70 = DIRECTION ( 'NONE',  ( -3.491481338843133355E-15, 1.224646799147353207E-16, -1.000000000000000000 ) ) ;
#71 = PLANE ( 'NONE',  #56 ) ;
#72 = EDGE_CURVE ( 'NONE', #86, #86, #91, .T. ) ;
#73 = EDGE_LOOP ( 'NONE', ( #10 ) ) ;
#74 =( GEOMETRIC_REPRESENTATION_CONTEXT ( 3 ) GLOBAL_UNCERTAINTY_ASSIGNED_CONTEXT ( ( #8 ) ) GLOBAL_UNIT_ASSIGNED_CONTEXT ( ( #183, #153, #57 ) ) REPRESENTATION_CONTEXT ( 'NONE', 'WORKASPACE' ) );
#75 = PERSON_AND_ORGANIZATION_ROLE ( 'creator' ) ;
#76 = PERSON_AND_ORGANIZATION ( #198, #48 ) ;
#77 = AXIS2_PLACEMENT_3D ( 'NONE', #78, #127, #148 ) ;
#78 = CARTESIAN_POINT ( 'NONE',  ( 1.628104486607834554E-15, -5.710621809774221364E-17, 0.4663076581550026356 ) ) ;
#79 = CARTESIAN_POINT ( 'NONE',  ( 1.316288464743861212E-13, 0.9999999999999954481, 37.69999999999999574 ) ) ;
#80 = CALENDAR_DATE ( 2021, 6, 10 ) ;
#81 = EDGE_CURVE ( 'NONE', #82, #82, #43, .T. ) ;
#82 = VERTEX_POINT ( 'NONE', #4 ) ;
#83 = FACE_OUTER_BOUND ( 'NONE', #24, .T. ) ;
#84 = VERTEX_POINT ( 'NONE', #26 ) ;
#85 = LOCAL_TIME ( 13, 20, 16.00000000000000000, #94 ) ;
#86 = VERTEX_POINT ( 'NONE', #159 ) ;
#87 = DIRECTION ( 'NONE',  ( -3.491481338843133355E-15, 1.224646799147353207E-16, -1.000000000000000000 ) ) ;
#88 = FACE_OUTER_BOUND ( 'NONE', #121, .T. ) ;
#89 = CYLINDRICAL_SURFACE ( 'NONE', #36, 0.9999999999999986677 ) ;
#90 = EDGE_CURVE ( 'NONE', #101, #101, #194, .T. ) ;
#91 = CIRCLE ( 'NONE', #77, 0.9999999999999954481 ) ;
#92 = APPROVAL_ROLE ( '' ) ;
#93 = PERSON_AND_ORGANIZATION ( #198, #48 ) ;
#94 = COORDINATED_UNIVERSAL_TIME_OFFSET ( 1, 0, .AHEAD. ) ;
#95 = APPLICATION_CONTEXT ( 'configuration controlled 3d designs of mechanical parts and assemblies' ) ;
#96 = CALENDAR_DATE ( 2021, 6, 10 ) ;
#97 = DIRECTION ( 'NONE',  ( -4.275831445896958607E-31, -1.000000000000000000, -1.224646799147353207E-16 ) ) ;
#98 = CALENDAR_DATE ( 2021, 6, 10 ) ;
#99 = CARTESIAN_POINT ( 'NONE',  ( 5.586370142149013368E-14, -1.959434878635765131E-15, 16.00000000000000000 ) ) ;
#100 = ORIENTED_EDGE ( 'NONE', *, *, #7, .F. ) ;
#101 = VERTEX_POINT ( 'NONE', #79 ) ;
#102 = AXIS2_PLACEMENT_3D ( 'NONE', #186, #188, #113 ) ;
#103 = ADVANCED_FACE ( 'NONE', ( #179 ), #51, .T. ) ;
#104 = ORIENTED_EDGE ( 'NONE', *, *, #7, .T. ) ;
#105 = ORIENTED_EDGE ( 'NONE', *, *, #90, .T. ) ;
#106 = DIRECTION ( 'NONE',  ( 0.0000000000000000000, 1.000000000000000000, 0.0000000000000000000 ) ) ;
#107 = ORIENTED_EDGE ( 'NONE', *, *, #81, .T. ) ;
#108 = PERSON_AND_ORGANIZATION ( #198, #48 ) ;
#109 = DIRECTION ( 'NONE',  ( 3.491481338843133355E-15, -1.224646799147353207E-16, 1.000000000000000000 ) ) ;
#110 = APPROVAL_STATUS ( 'not_yet_approved' ) ;
#111 = DIRECTION ( 'NONE',  ( 0.0000000000000000000, 1.000000000000000000, 0.0000000000000000000 ) ) ;
#112 = CALENDAR_DATE ( 2021, 6, 10 ) ;
#113 = DIRECTION ( 'NONE',  ( 4.275831445896958607E-31, 1.000000000000000000, 1.224646799147353207E-16 ) ) ;
#114 = DATE_TIME_ROLE ( 'classification_date' ) ;
#115 = CONICAL_SURFACE ( 'NONE', #27, 0.7000000000000001776, 0.7853981633974452814 ) ;
#116 = CARTESIAN_POINT ( 'NONE',  ( 1.326762908760390423E-13, -4.653657836759941941E-15, 38.00000000000000000 ) ) ;
#117 = FACE_OUTER_BOUND ( 'NONE', #37, .T. ) ;
#118 = APPROVAL ( #21, 'UNSPECIFIED' ) ;
#119 = DIRECTION ( 'NONE',  ( 0.0000000000000000000, 1.000000000000000000, 0.0000000000000000000 ) ) ;
#120 = LOCAL_TIME ( 13, 20, 16.00000000000000000, #30 ) ;
#121 = EDGE_LOOP ( 'NONE', ( #104 ) ) ;
#122 = EDGE_LOOP ( 'NONE', ( #105 ) ) ;
#123 = PERSON_AND_ORGANIZATION ( #198, #48 ) ;
#124 = CARTESIAN_POINT ( 'NONE',  ( 1.326762908760390423E-13, 5.249159239316433205E-33, 38.00000000000000000 ) ) ;
#125 = ADVANCED_FACE ( 'NONE', ( #1 ), #200, .F. ) ;
#126 = CIRCLE ( 'NONE', #161, 0.7000000000000001776 ) ;
#127 = DIRECTION ( 'NONE',  ( -3.491481338843133355E-15, 1.224646799147353207E-16, -1.000000000000000000 ) ) ;
#128 = DATE_AND_TIME ( #112, #150 ) ;
#129 = PERSON_AND_ORGANIZATION_ROLE ( 'classification_officer' ) ;
#130 = EDGE_CURVE ( 'NONE', #84, #84, #126, .T. ) ;
#131 = APPLICATION_PROTOCOL_DEFINITION ( 'international standard', 'config_control_design', 1994, #165 ) ;
#132 = CC_DESIGN_SECURITY_CLASSIFICATION ( #66, ( #190 ) ) ;
#133 = DIRECTION ( 'NONE',  ( 4.275831445896959482E-31, 1.000000000000000000, 1.224646799147353454E-16 ) ) ;
#134 = PRODUCT_DEFINITION ( 'UNKNOWN', '', #190, #22 ) ;
#135 = APPROVAL_PERSON_ORGANIZATION ( #108, #140, #169 ) ;
#136 = CARTESIAN_POINT ( 'NONE',  ( 1.316288464743861212E-13, -4.616918432785521081E-15, 37.69999999999999574 ) ) ;
#137 = CARTESIAN_POINT ( 'NONE',  ( 1.628104486607834554E-15, -5.710621809774221364E-17, 0.4663076581550026356 ) ) ;
#138 = PRODUCT_RELATED_PRODUCT_CATEGORY ( 'detail', '', ( #193 ) ) ;
#139 = CARTESIAN_POINT ( 'NONE',  ( 5.586370142149013368E-14, 7.498798913309238775E-33, 16.00000000000000000 ) ) ;
#140 = APPROVAL ( #110, 'UNSPECIFIED' ) ;
#141 = EDGE_LOOP ( 'NONE', ( #107 ) ) ;
#142 = ORIENTED_EDGE ( 'NONE', *, *, #72, .F. ) ;
#143 = CC_DESIGN_DATE_AND_TIME_ASSIGNMENT ( #18, #114, ( #66 ) ) ;
#144 = DIRECTION ( 'NONE',  ( 3.491481338843133355E-15, -1.224646799147353207E-16, 1.000000000000000000 ) ) ;
#145 = PERSON_AND_ORGANIZATION ( #198, #48 ) ;
#146 = DIRECTION ( 'NONE',  ( 1.000000000000000000, 0.0000000000000000000, 0.0000000000000000000 ) ) ;
#147 = APPROVAL_DATE_TIME ( #173, #175 ) ;
#148 = DIRECTION ( 'NONE',  ( 3.851859888774489222E-31, 1.000000000000000000, 1.084202172485509364E-16 ) ) ;
#149 = MANIFOLD_SOLID_BREP ( 'Corps-Déplacer/Copier1[1]', #176 ) ;
#150 = LOCAL_TIME ( 13, 20, 16.00000000000000000, #152 ) ;
#151 = AXIS2_PLACEMENT_3D ( 'NONE', #99, #2, #119 ) ;
#152 = COORDINATED_UNIVERSAL_TIME_OFFSET ( 1, 0, .AHEAD. ) ;
#153 =( NAMED_UNIT ( * ) PLANE_ANGLE_UNIT ( ) SI_UNIT ( $, .RADIAN. ) );
#154 = PERSON_AND_ORGANIZATION_ROLE ( 'design_supplier' ) ;
#155 = CIRCLE ( 'NONE', #151, 0.9999999999999974465 ) ;
#156 = MECHANICAL_CONTEXT ( 'NONE', #95, 'mechanical' ) ;
#157 = AXIS2_PLACEMENT_3D ( 'NONE', #191, #42, #146 ) ;
#158 = EDGE_LOOP ( 'NONE', ( #100 ) ) ;
#159 = CARTESIAN_POINT ( 'NONE',  ( 1.628104486607834949E-15, 0.9999999999999954481, 0.4663076581550027466 ) ) ;
#160 = ORIENTED_EDGE ( 'NONE', *, *, #72, .T. ) ;
#161 = AXIS2_PLACEMENT_3D ( 'NONE', #116, #201, #111 ) ;
#162 = CC_DESIGN_PERSON_AND_ORGANIZATION_ASSIGNMENT ( #29, #129, ( #66 ) ) ;
#163 = ADVANCED_BREP_SHAPE_REPRESENTATION ( '55643', ( #149, #6, #157 ), #74 ) ;
#164 = CC_DESIGN_APPROVAL ( #140, ( #134 ) ) ;
#165 = APPLICATION_CONTEXT ( 'configuration controlled 3d designs of mechanical parts and assemblies' ) ;
#166 = CARTESIAN_POINT ( 'NONE',  ( 0.0000000000000000000, 0.0000000000000000000, 0.0000000000000000000 ) ) ;
#167 = CARTESIAN_POINT ( 'NONE',  ( 1.326762908760390423E-13, -4.653657836759941941E-15, 38.00000000000000000 ) ) ;
#168 = PERSON_AND_ORGANIZATION ( #198, #48 ) ;
#169 = APPROVAL_ROLE ( '' ) ;
#170 = COORDINATED_UNIVERSAL_TIME_OFFSET ( 1, 0, .AHEAD. ) ;
#171 = CARTESIAN_POINT ( 'NONE',  ( 5.586370142149013368E-14, 7.498798913309238775E-33, 16.00000000000000000 ) ) ;
#172 = LOCAL_TIME ( 13, 20, 16.00000000000000000, #170 ) ;
#173 = DATE_AND_TIME ( #96, #120 ) ;
#174 = DIRECTION ( 'NONE',  ( -4.275831445896958607E-31, -1.000000000000000000, -1.224646799147353207E-16 ) ) ;
#175 = APPROVAL ( #203, 'UNSPECIFIED' ) ;
#176 = CLOSED_SHELL ( 'NONE', ( #195, #32, #202, #125 ) ) ;
#177 = ORIENTED_EDGE ( 'NONE', *, *, #90, .F. ) ;
#178 = DIRECTION ( 'NONE',  ( 3.491481338843133355E-15, -1.224646799147353207E-16, 1.000000000000000000 ) ) ;
#179 = FACE_OUTER_BOUND ( 'NONE', #34, .T. ) ;
#180 = AXIS2_PLACEMENT_3D ( 'NONE', #137, #109, #13 ) ;
#181 = ORIENTED_EDGE ( 'NONE', *, *, #81, .F. ) ;
#182 = FACE_OUTER_BOUND ( 'NONE', #158, .T. ) ;
#183 =( LENGTH_UNIT ( ) NAMED_UNIT ( * ) SI_UNIT ( .MILLI., .METRE. ) );
#184 = APPROVAL_PERSON_ORGANIZATION ( #15, #118, #92 ) ;
#185 = SECURITY_CLASSIFICATION_LEVEL ( 'unclassified' ) ;
#186 = CARTESIAN_POINT ( 'NONE',  ( 0.0000000000000000000, 0.0000000000000000000, 0.0000000000000000000 ) ) ;
#187 = DATE_AND_TIME ( #98, #172 ) ;
#188 = DIRECTION ( 'NONE',  ( -3.491481338843133355E-15, 1.224646799147353207E-16, -1.000000000000000000 ) ) ;
#189 = CC_DESIGN_PERSON_AND_ORGANIZATION_ASSIGNMENT ( #93, #75, ( #134 ) ) ;
#190 = PRODUCT_DEFINITION_FORMATION_WITH_SPECIFIED_SOURCE ( 'ANY', '', #193, .NOT_KNOWN. ) ;
#191 = CARTESIAN_POINT ( 'NONE',  ( 0.0000000000000000000, 0.0000000000000000000, 0.0000000000000000000 ) ) ;
#192 = CC_DESIGN_PERSON_AND_ORGANIZATION_ASSIGNMENT ( #123, #44, ( #193 ) ) ;
#193 = PRODUCT ( '55643', '55643', '', ( #156 ) ) ;
#194 = CIRCLE ( 'NONE', #9, 1.000000000000000000 ) ;
#195 = ADVANCED_FACE ( 'NONE', ( #88 ), #71, .F. ) ;
#196 = AXIS2_PLACEMENT_3D ( 'NONE', #171, #144, #97 ) ;
#197 = DIRECTION ( 'NONE',  ( 0.0000000000000000000, 1.000000000000000000, 0.0000000000000000000 ) ) ;
#198 = PERSON ( 'UNSPECIFIED', 'UNSPECIFIED', 'UNSPECIFIED', ('UNSPECIFIED'), ('UNSPECIFIED'), ('UNSPECIFIED') ) ;
#199 = COORDINATED_UNIVERSAL_TIME_OFFSET ( 1, 0, .AHEAD. ) ;
#200 = PLANE ( 'NONE',  #19 ) ;
#201 = DIRECTION ( 'NONE',  ( -3.491481338843133355E-15, 1.224646799147353207E-16, -1.000000000000000000 ) ) ;
#202 = ADVANCED_FACE ( 'NONE', ( #117, #23 ), #115, .T. ) ;
#203 = APPROVAL_STATUS ( 'not_yet_approved' ) ;
ENDSEC;
END-ISO-10303-21;
