ISO-10303-21;
HEADER;
FILE_DESCRIPTION (( 'STEP AP203' ),
    '1' );
FILE_NAME ('55641.step',
    '2021-10-06T11:20:14',
    ( '' ),
    ( '' ),
    'SwSTEP 2.0',
    'SolidWorks 2019',
    '' );
FILE_SCHEMA (( 'CONFIG_CONTROL_DESIGN' ));
ENDSEC;

DATA;
#1 = DIRECTION ( 'NONE',  ( 4.275831445896958607E-31, 1.000000000000000000, 1.224646799147353454E-16 ) ) ;
#2 = PERSON_AND_ORGANIZATION_ROLE ( 'design_supplier' ) ;
#3 = APPROVAL_STATUS ( 'not_yet_approved' ) ;
#4 = PERSON_AND_ORGANIZATION_ROLE ( 'creator' ) ;
#5 =( NAMED_UNIT ( * ) PLANE_ANGLE_UNIT ( ) SI_UNIT ( $, .RADIAN. ) );
#6 = APPROVAL_PERSON_ORGANIZATION ( #72, #133, #60 ) ;
#7 = EDGE_CURVE ( 'NONE', #57, #57, #39, .T. ) ;
#8 = PERSON_AND_ORGANIZATION ( #201, #198 ) ;
#9 = FACE_OUTER_BOUND ( 'NONE', #82, .T. ) ;
#10 = SHAPE_DEFINITION_REPRESENTATION ( #94, #74 ) ;
#11 = CC_DESIGN_DATE_AND_TIME_ASSIGNMENT ( #33, #153, ( #104 ) ) ;
#12 = CARTESIAN_POINT ( 'NONE',  ( 5.586370142149013368E-14, 7.311328940476506574E-33, 16.00000000000000000 ) ) ;
#13 = DIRECTION ( 'NONE',  ( 3.491481338843133355E-15, -1.224646799147353207E-16, 1.000000000000000000 ) ) ;
#14 = PLANE ( 'NONE',  #66 ) ;
#15 = CC_DESIGN_PERSON_AND_ORGANIZATION_ASSIGNMENT ( #8, #186, ( #37 ) ) ;
#16 = AXIS2_PLACEMENT_3D ( 'NONE', #25, #197, #95 ) ;
#17 = DIRECTION ( 'NONE',  ( 3.950625526948194478E-31, 1.000000000000000000, 1.112002228190266129E-16 ) ) ;
#18 = DIRECTION ( 'NONE',  ( -3.491481338843133355E-15, 1.224646799147353207E-16, -1.000000000000000000 ) ) ;
#19 = ADVANCED_FACE ( 'NONE', ( #9 ), #103, .F. ) ;
#20 = AXIS2_PLACEMENT_3D ( 'NONE', #163, #181, #17 ) ;
#21 = LOCAL_TIME ( 13, 20, 14.00000000000000000, #90 ) ;
#22 = APPLICATION_PROTOCOL_DEFINITION ( 'international standard', 'config_control_design', 1994, #127 ) ;
#23 = DATE_TIME_ROLE ( 'creation_date' ) ;
#24 = DIRECTION ( 'NONE',  ( 1.000000000000000000, 0.0000000000000000000, 0.0000000000000000000 ) ) ;
#25 = CARTESIAN_POINT ( 'NONE',  ( 1.319779946082704535E-13, -4.629164900776995227E-15, 37.79999999999999716 ) ) ;
#26 = EDGE_CURVE ( 'NONE', #121, #121, #99, .T. ) ;
#27 = EDGE_LOOP ( 'NONE', ( #158 ) ) ;
#28 = CARTESIAN_POINT ( 'NONE',  ( 1.326762908760390423E-13, 5.811569157814627755E-33, 38.00000000000000000 ) ) ;
#29 = FACE_OUTER_BOUND ( 'NONE', #113, .T. ) ;
#30 = CARTESIAN_POINT ( 'NONE',  ( 5.586370142149013368E-14, 0.9749999999999953149, 16.00000000000000000 ) ) ;
#31 = CYLINDRICAL_SURFACE ( 'NONE', #42, 0.9749999999999963141 ) ;
#32 = FACE_OUTER_BOUND ( 'NONE', #41, .T. ) ;
#33 = DATE_AND_TIME ( #166, #115 ) ;
#34 = VERTEX_POINT ( 'NONE', #52 ) ;
#35 = LOCAL_TIME ( 13, 20, 14.00000000000000000, #91 ) ;
#36 = ADVANCED_FACE ( 'NONE', ( #161, #150 ), #67, .T. ) ;
#37 = PRODUCT ( '55641', '55641', '', ( #143 ) ) ;
#38 =( LENGTH_UNIT ( ) NAMED_UNIT ( * ) SI_UNIT ( .MILLI., .METRE. ) );
#39 = CIRCLE ( 'NONE', #16, 0.9749999999999999778 ) ;
#40 = EDGE_LOOP ( 'NONE', ( #98 ) ) ;
#41 = EDGE_LOOP ( 'NONE', ( #175 ) ) ;
#42 = AXIS2_PLACEMENT_3D ( 'NONE', #203, #55, #165 ) ;
#43 = ORIENTED_EDGE ( 'NONE', *, *, #26, .F. ) ;
#44 = LOCAL_TIME ( 13, 20, 14.00000000000000000, #188 ) ;
#45 = DIRECTION ( 'NONE',  ( 3.491481338843133355E-15, -1.224646799147353207E-16, 1.000000000000000000 ) ) ;
#46 = VERTEX_POINT ( 'NONE', #30 ) ;
#47 = DIRECTION ( 'NONE',  ( 0.0000000000000000000, 1.000000000000000000, 0.0000000000000000000 ) ) ;
#48 = CC_DESIGN_PERSON_AND_ORGANIZATION_ASSIGNMENT ( #129, #4, ( #120 ) ) ;
#49 = PERSON_AND_ORGANIZATION ( #201, #198 ) ;
#50 = CC_DESIGN_PERSON_AND_ORGANIZATION_ASSIGNMENT ( #49, #2, ( #112 ) ) ;
#51 = APPROVAL_ROLE ( '' ) ;
#52 = CARTESIAN_POINT ( 'NONE',  ( 5.586370142149013368E-14, 0.9749999999999953149, 16.00000000000000000 ) ) ;
#53 = ORIENTED_EDGE ( 'NONE', *, *, #191, .F. ) ;
#54 = FACE_BOUND ( 'NONE', #40, .T. ) ;
#55 = DIRECTION ( 'NONE',  ( -3.491481338843133355E-15, 1.224646799147353207E-16, -1.000000000000000000 ) ) ;
#56 = CIRCLE ( 'NONE', #168, 0.9749999999999972022 ) ;
#57 = VERTEX_POINT ( 'NONE', #58 ) ;
#58 = CARTESIAN_POINT ( 'NONE',  ( 1.319779946082704535E-13, 0.9749999999999953149, 37.79999999999999716 ) ) ;
#59 = SECURITY_CLASSIFICATION_LEVEL ( 'unclassified' ) ;
#60 = APPROVAL_ROLE ( '' ) ;
#61 = CC_DESIGN_APPROVAL ( #151, ( #120 ) ) ;
#62 = DATE_AND_TIME ( #109, #21 ) ;
#63 = CC_DESIGN_DATE_AND_TIME_ASSIGNMENT ( #62, #23, ( #120 ) ) ;
#64 = ORIENTED_EDGE ( 'NONE', *, *, #172, .F. ) ;
#65 = EDGE_CURVE ( 'NONE', #46, #46, #56, .T. ) ;
#66 = AXIS2_PLACEMENT_3D ( 'NONE', #105, #13, #88 ) ;
#67 = CYLINDRICAL_SURFACE ( 'NONE', #119, 0.9749999999999986455 ) ;
#68 = CARTESIAN_POINT ( 'NONE',  ( 5.586370142149013368E-14, -1.959434878635765131E-15, 16.00000000000000000 ) ) ;
#69 = CLOSED_SHELL ( 'NONE', ( #141, #78, #116 ) ) ;
#70 = VERTEX_POINT ( 'NONE', #167 ) ;
#71 = DIRECTION ( 'NONE',  ( 0.0000000000000000000, 0.0000000000000000000, 1.000000000000000000 ) ) ;
#72 = PERSON_AND_ORGANIZATION ( #201, #198 ) ;
#73 = AXIS2_PLACEMENT_3D ( 'NONE', #12, #199, #117 ) ;
#74 = ADVANCED_BREP_SHAPE_REPRESENTATION ( '55641', ( #195, #77, #196 ), #154 ) ;
#75 = CALENDAR_DATE ( 2021, 6, 10 ) ;
#76 =( NAMED_UNIT ( * ) SI_UNIT ( $, .STERADIAN. ) SOLID_ANGLE_UNIT ( ) );
#77 = MANIFOLD_SOLID_BREP ( 'Corps-Déplacer/Copier1[2]', #69 ) ;
#78 = ADVANCED_FACE ( 'NONE', ( #29, #84 ), #31, .T. ) ;
#79 = EDGE_LOOP ( 'NONE', ( #53 ) ) ;
#80 = ADVANCED_FACE ( 'NONE', ( #148, #54 ), #177, .T. ) ;
#81 = CC_DESIGN_APPROVAL ( #133, ( #104 ) ) ;
#82 = EDGE_LOOP ( 'NONE', ( #64 ) ) ;
#83 = CC_DESIGN_PERSON_AND_ORGANIZATION_ASSIGNMENT ( #107, #185, ( #104 ) ) ;
#84 = FACE_OUTER_BOUND ( 'NONE', #146, .T. ) ;
#85 = DIRECTION ( 'NONE',  ( 0.0000000000000000000, 1.000000000000000000, 0.0000000000000000000 ) ) ;
#86 = DIRECTION ( 'NONE',  ( -3.491481338843133355E-15, 1.224646799147353207E-16, -1.000000000000000000 ) ) ;
#87 = APPROVAL_PERSON_ORGANIZATION ( #156, #164, #170 ) ;
#88 = DIRECTION ( 'NONE',  ( -4.275831445896958607E-31, -1.000000000000000000, -1.224646799147353207E-16 ) ) ;
#89 = CIRCLE ( 'NONE', #134, 0.9749999999999972022 ) ;
#90 = COORDINATED_UNIVERSAL_TIME_OFFSET ( 1, 0, .AHEAD. ) ;
#91 = COORDINATED_UNIVERSAL_TIME_OFFSET ( 1, 0, .AHEAD. ) ;
#92 = PRODUCT_RELATED_PRODUCT_CATEGORY ( 'detail', '', ( #37 ) ) ;
#93 = AXIS2_PLACEMENT_3D ( 'NONE', #101, #86, #85 ) ;
#94 = PRODUCT_DEFINITION_SHAPE ( 'NONE', 'NONE',  #120 ) ;
#95 = DIRECTION ( 'NONE',  ( 0.0000000000000000000, 1.000000000000000000, 0.0000000000000000000 ) ) ;
#96 = ORIENTED_EDGE ( 'NONE', *, *, #7, .F. ) ;
#97 = CIRCLE ( 'NONE', #93, 0.7750000000000000222 ) ;
#98 = ORIENTED_EDGE ( 'NONE', *, *, #172, .T. ) ;
#99 = CIRCLE ( 'NONE', #20, 0.9749999999999954259 ) ;
#100 = APPROVAL_PERSON_ORGANIZATION ( #128, #151, #51 ) ;
#101 = CARTESIAN_POINT ( 'NONE',  ( 1.326762908760390423E-13, -4.653657836759941941E-15, 38.00000000000000000 ) ) ;
#102 = DIRECTION ( 'NONE',  ( -3.950625526948194478E-31, -1.000000000000000000, -1.112002228190266129E-16 ) ) ;
#103 = PLANE ( 'NONE',  #194 ) ;
#104 = SECURITY_CLASSIFICATION ( '', '', #59 ) ;
#105 = CARTESIAN_POINT ( 'NONE',  ( 5.586370142149013368E-14, 7.311328940476506574E-33, 16.00000000000000000 ) ) ;
#106 = COORDINATED_UNIVERSAL_TIME_OFFSET ( 1, 0, .AHEAD. ) ;
#107 = PERSON_AND_ORGANIZATION ( #201, #198 ) ;
#108 = CALENDAR_DATE ( 2021, 6, 10 ) ;
#109 = CALENDAR_DATE ( 2021, 6, 10 ) ;
#110 = DATE_AND_TIME ( #75, #35 ) ;
#111 = CALENDAR_DATE ( 2021, 6, 10 ) ;
#112 = PRODUCT_DEFINITION_FORMATION_WITH_SPECIFIED_SOURCE ( 'ANY', '', #37, .NOT_KNOWN. ) ;
#113 = EDGE_LOOP ( 'NONE', ( #43 ) ) ;
#114 = APPLICATION_CONTEXT ( 'configuration controlled 3d designs of mechanical parts and assemblies' ) ;
#115 = LOCAL_TIME ( 13, 20, 14.00000000000000000, #106 ) ;
#116 = ADVANCED_FACE ( 'NONE', ( #136 ), #14, .T. ) ;
#117 = DIRECTION ( 'NONE',  ( -4.275831445896958607E-31, -1.000000000000000000, -1.224646799147353207E-16 ) ) ;
#118 = CARTESIAN_POINT ( 'NONE',  ( 0.0000000000000000000, 0.0000000000000000000, 0.0000000000000000000 ) ) ;
#119 = AXIS2_PLACEMENT_3D ( 'NONE', #118, #140, #1 ) ;
#120 = PRODUCT_DEFINITION ( 'UNKNOWN', '', #112, #189 ) ;
#121 = VERTEX_POINT ( 'NONE', #180 ) ;
#122 = DIRECTION ( 'NONE',  ( -3.491481338843133355E-15, 1.224646799147353207E-16, -1.000000000000000000 ) ) ;
#123 = CLOSED_SHELL ( 'NONE', ( #125, #36, #80, #19 ) ) ;
#124 = CARTESIAN_POINT ( 'NONE',  ( 0.0000000000000000000, 0.0000000000000000000, 0.0000000000000000000 ) ) ;
#125 = ADVANCED_FACE ( 'NONE', ( #32 ), #149, .F. ) ;
#126 = APPLICATION_PROTOCOL_DEFINITION ( 'international standard', 'config_control_design', 1994, #114 ) ;
#127 = APPLICATION_CONTEXT ( 'configuration controlled 3d designs of mechanical parts and assemblies' ) ;
#128 = PERSON_AND_ORGANIZATION ( #201, #198 ) ;
#129 = PERSON_AND_ORGANIZATION ( #201, #198 ) ;
#130 = UNCERTAINTY_MEASURE_WITH_UNIT (LENGTH_MEASURE( 1.000000000000000082E-05 ), #38, 'distance_accuracy_value', 'NONE');
#131 = LOCAL_TIME ( 13, 20, 14.00000000000000000, #147 ) ;
#132 = ORIENTED_EDGE ( 'NONE', *, *, #65, .T. ) ;
#133 = APPROVAL ( #3, 'UNSPECIFIED' ) ;
#134 = AXIS2_PLACEMENT_3D ( 'NONE', #68, #137, #202 ) ;
#135 = DIRECTION ( 'NONE',  ( -3.491481338843133355E-15, 1.224646799147353207E-16, -1.000000000000000000 ) ) ;
#136 = FACE_OUTER_BOUND ( 'NONE', #193, .T. ) ;
#137 = DIRECTION ( 'NONE',  ( -3.491481338843133355E-15, 1.224646799147353207E-16, -1.000000000000000000 ) ) ;
#138 = CONICAL_SURFACE ( 'NONE', #173, 0.9749999999999954259, 1.134464013796309123 ) ;
#139 = DIRECTION ( 'NONE',  ( 4.275831445896958607E-31, 1.000000000000000000, 1.224646799147353207E-16 ) ) ;
#140 = DIRECTION ( 'NONE',  ( -3.491481338843133355E-15, 1.224646799147353207E-16, -1.000000000000000000 ) ) ;
#141 = ADVANCED_FACE ( 'NONE', ( #200 ), #138, .T. ) ;
#142 = CC_DESIGN_APPROVAL ( #164, ( #112 ) ) ;
#143 = MECHANICAL_CONTEXT ( 'NONE', #114, 'mechanical' ) ;
#144 = APPROVAL_DATE_TIME ( #110, #164 ) ;
#145 = EDGE_LOOP ( 'NONE', ( #96 ) ) ;
#146 = EDGE_LOOP ( 'NONE', ( #132 ) ) ;
#147 = COORDINATED_UNIVERSAL_TIME_OFFSET ( 1, 0, .AHEAD. ) ;
#148 = FACE_OUTER_BOUND ( 'NONE', #145, .T. ) ;
#149 = PLANE ( 'NONE',  #73 ) ;
#150 = FACE_OUTER_BOUND ( 'NONE', #27, .T. ) ;
#151 = APPROVAL ( #187, 'UNSPECIFIED' ) ;
#152 = PERSON_AND_ORGANIZATION ( #201, #198 ) ;
#153 = DATE_TIME_ROLE ( 'classification_date' ) ;
#154 =( GEOMETRIC_REPRESENTATION_CONTEXT ( 3 ) GLOBAL_UNCERTAINTY_ASSIGNED_CONTEXT ( ( #130 ) ) GLOBAL_UNIT_ASSIGNED_CONTEXT ( ( #38, #5, #76 ) ) REPRESENTATION_CONTEXT ( 'NONE', 'WORKASPACE' ) );
#155 = APPROVAL_DATE_TIME ( #171, #151 ) ;
#156 = PERSON_AND_ORGANIZATION ( #201, #198 ) ;
#157 = AXIS2_PLACEMENT_3D ( 'NONE', #183, #18, #47 ) ;
#158 = ORIENTED_EDGE ( 'NONE', *, *, #7, .T. ) ;
#159 = ORIENTED_EDGE ( 'NONE', *, *, #26, .T. ) ;
#160 = ORIENTED_EDGE ( 'NONE', *, *, #65, .F. ) ;
#161 = FACE_OUTER_BOUND ( 'NONE', #79, .T. ) ;
#162 = DIRECTION ( 'NONE',  ( 0.0000000000000000000, 1.000000000000000000, 0.0000000000000000000 ) ) ;
#163 = CARTESIAN_POINT ( 'NONE',  ( 1.587401874442638390E-15, -5.567856264529863797E-17, 0.4546499667011273949 ) ) ;
#164 = APPROVAL ( #190, 'UNSPECIFIED' ) ;
#165 = DIRECTION ( 'NONE',  ( 4.275831445896958607E-31, 1.000000000000000000, 1.224646799147353207E-16 ) ) ;
#166 = CALENDAR_DATE ( 2021, 6, 10 ) ;
#167 = CARTESIAN_POINT ( 'NONE',  ( 1.326762908760390423E-13, 0.7749999999999953593, 38.00000000000000000 ) ) ;
#168 = AXIS2_PLACEMENT_3D ( 'NONE', #178, #135, #162 ) ;
#169 = PERSON_AND_ORGANIZATION_ROLE ( 'creator' ) ;
#170 = APPROVAL_ROLE ( '' ) ;
#171 = DATE_AND_TIME ( #108, #44 ) ;
#172 = EDGE_CURVE ( 'NONE', #70, #70, #97, .T. ) ;
#173 = AXIS2_PLACEMENT_3D ( 'NONE', #179, #45, #102 ) ;
#174 = DATE_AND_TIME ( #111, #131 ) ;
#175 = ORIENTED_EDGE ( 'NONE', *, *, #191, .T. ) ;
#176 = EDGE_LOOP ( 'NONE', ( #159 ) ) ;
#177 = CONICAL_SURFACE ( 'NONE', #157, 0.7750000000000000222, 0.7853981633974512766 ) ;
#178 = CARTESIAN_POINT ( 'NONE',  ( 5.586370142149013368E-14, -1.959434878635765131E-15, 16.00000000000000000 ) ) ;
#179 = CARTESIAN_POINT ( 'NONE',  ( 1.587401874442638390E-15, -5.567856264529863797E-17, 0.4546499667011273949 ) ) ;
#180 = CARTESIAN_POINT ( 'NONE',  ( 1.587401874442638784E-15, 0.9749999999999953149, 0.4546499667011275059 ) ) ;
#181 = DIRECTION ( 'NONE',  ( -3.491481338843133355E-15, 1.224646799147353207E-16, -1.000000000000000000 ) ) ;
#182 = CC_DESIGN_PERSON_AND_ORGANIZATION_ASSIGNMENT ( #152, #169, ( #112 ) ) ;
#183 = CARTESIAN_POINT ( 'NONE',  ( 1.326762908760390423E-13, -4.653657836759941941E-15, 38.00000000000000000 ) ) ;
#184 = CC_DESIGN_SECURITY_CLASSIFICATION ( #104, ( #112 ) ) ;
#185 = PERSON_AND_ORGANIZATION_ROLE ( 'classification_officer' ) ;
#186 = PERSON_AND_ORGANIZATION_ROLE ( 'design_owner' ) ;
#187 = APPROVAL_STATUS ( 'not_yet_approved' ) ;
#188 = COORDINATED_UNIVERSAL_TIME_OFFSET ( 1, 0, .AHEAD. ) ;
#189 = DESIGN_CONTEXT ( 'detailed design', #127, 'design' ) ;
#190 = APPROVAL_STATUS ( 'not_yet_approved' ) ;
#191 = EDGE_CURVE ( 'NONE', #34, #34, #89, .T. ) ;
#192 = APPROVAL_DATE_TIME ( #174, #133 ) ;
#193 = EDGE_LOOP ( 'NONE', ( #160 ) ) ;
#194 = AXIS2_PLACEMENT_3D ( 'NONE', #28, #122, #139 ) ;
#195 = MANIFOLD_SOLID_BREP ( 'Corps-Déplacer/Copier1[1]', #123 ) ;
#196 = AXIS2_PLACEMENT_3D ( 'NONE', #124, #71, #24 ) ;
#197 = DIRECTION ( 'NONE',  ( -3.491481338843133355E-15, 1.224646799147353207E-16, -1.000000000000000000 ) ) ;
#198 = ORGANIZATION ( 'UNSPECIFIED', 'UNSPECIFIED', '' ) ;
#199 = DIRECTION ( 'NONE',  ( 3.491481338843133355E-15, -1.224646799147353207E-16, 1.000000000000000000 ) ) ;
#200 = FACE_OUTER_BOUND ( 'NONE', #176, .T. ) ;
#201 = PERSON ( 'UNSPECIFIED', 'UNSPECIFIED', 'UNSPECIFIED', ('UNSPECIFIED'), ('UNSPECIFIED'), ('UNSPECIFIED') ) ;
#202 = DIRECTION ( 'NONE',  ( 0.0000000000000000000, 1.000000000000000000, 0.0000000000000000000 ) ) ;
#203 = CARTESIAN_POINT ( 'NONE',  ( 0.0000000000000000000, 0.0000000000000000000, 0.0000000000000000000 ) ) ;
ENDSEC;
END-ISO-10303-21;
