ISO-10303-21;
HEADER;
FILE_DESCRIPTION (( 'STEP AP203' ),
    '1' );
FILE_NAME ('55639.step',
    '2021-10-06T11:20:12',
    ( '' ),
    ( '' ),
    'SwSTEP 2.0',
    'SolidWorks 2019',
    '' );
FILE_SCHEMA (( 'CONFIG_CONTROL_DESIGN' ));
ENDSEC;

DATA;
#1 = CARTESIAN_POINT ( 'NONE',  ( 5.586370142149013368E-14, -1.959434878635765131E-15, 16.00000000000000000 ) ) ;
#2 = DIRECTION ( 'NONE',  ( -3.491481338843133355E-15, 1.224646799147353207E-16, -1.000000000000000000 ) ) ;
#3 = DIRECTION ( 'NONE',  ( -4.275831445896958607E-31, -1.000000000000000000, -1.224646799147353207E-16 ) ) ;
#4 = CARTESIAN_POINT ( 'NONE',  ( 1.546699262277442225E-15, -5.425090719285508694E-17, 0.4429922752472523206 ) ) ;
#5 = DIRECTION ( 'NONE',  ( 3.491481338843133355E-15, -1.224646799147353207E-16, 1.000000000000000000 ) ) ;
#6 =( NAMED_UNIT ( * ) PLANE_ANGLE_UNIT ( ) SI_UNIT ( $, .RADIAN. ) );
#7 = CARTESIAN_POINT ( 'NONE',  ( 5.586370142149013368E-14, 0.9499999999999952927, 16.00000000000000000 ) ) ;
#8 = CALENDAR_DATE ( 2021, 6, 10 ) ;
#9 = CALENDAR_DATE ( 2021, 6, 10 ) ;
#10 = EDGE_CURVE ( 'NONE', #103, #103, #62, .T. ) ;
#11 = APPROVAL_DATE_TIME ( #72, #78 ) ;
#12 = ORIENTED_EDGE ( 'NONE', *, *, #25, .F. ) ;
#13 = LOCAL_TIME ( 13, 20, 12.00000000000000000, #42 ) ;
#14 = ORIENTED_EDGE ( 'NONE', *, *, #124, .T. ) ;
#15 = FACE_OUTER_BOUND ( 'NONE', #27, .T. ) ;
#16 = AXIS2_PLACEMENT_3D ( 'NONE', #47, #144, #115 ) ;
#17 = DIRECTION ( 'NONE',  ( 0.0000000000000000000, 1.000000000000000000, 0.0000000000000000000 ) ) ;
#18 = MANIFOLD_SOLID_BREP ( 'Corps-Déplacer/Copier1[1]', #123 ) ;
#19 = CARTESIAN_POINT ( 'NONE',  ( 1.546699262277442225E-15, -5.425090719285508694E-17, 0.4429922752472523206 ) ) ;
#20 = APPROVAL ( #170, 'UNSPECIFIED' ) ;
#21 = DIRECTION ( 'NONE',  ( -4.275831445896958607E-31, -1.000000000000000000, -1.224646799147353207E-16 ) ) ;
#22 = CARTESIAN_POINT ( 'NONE',  ( 0.0000000000000000000, 0.0000000000000000000, 0.0000000000000000000 ) ) ;
#23 = LOCAL_TIME ( 13, 20, 12.00000000000000000, #197 ) ;
#24 = APPROVAL_ROLE ( '' ) ;
#25 = EDGE_CURVE ( 'NONE', #155, #155, #146, .T. ) ;
#26 = EDGE_LOOP ( 'NONE', ( #157 ) ) ;
#27 = EDGE_LOOP ( 'NONE', ( #66 ) ) ;
#28 = COORDINATED_UNIVERSAL_TIME_OFFSET ( 1, 0, .AHEAD. ) ;
#29 = DATE_TIME_ROLE ( 'classification_date' ) ;
#30 = EDGE_LOOP ( 'NONE', ( #74 ) ) ;
#31 = CARTESIAN_POINT ( 'NONE',  ( 5.586370142149013368E-14, 7.123858967643773004E-33, 16.00000000000000000 ) ) ;
#32 = ORIENTED_EDGE ( 'NONE', *, *, #88, .T. ) ;
#33 = CARTESIAN_POINT ( 'NONE',  ( 1.326762908760390423E-13, 5.624099184981896238E-33, 38.00000000000000000 ) ) ;
#34 = APPROVAL_PERSON_ORGANIZATION ( #55, #137, #135 ) ;
#35 = CYLINDRICAL_SURFACE ( 'NONE', #161, 0.9499999999999986233 ) ;
#36 = PERSON_AND_ORGANIZATION_ROLE ( 'design_supplier' ) ;
#37 = DIRECTION ( 'NONE',  ( 3.491481338843133355E-15, -1.224646799147353207E-16, 1.000000000000000000 ) ) ;
#38 = PERSON_AND_ORGANIZATION ( #81, #125 ) ;
#39 = CALENDAR_DATE ( 2021, 6, 10 ) ;
#40 = SECURITY_CLASSIFICATION_LEVEL ( 'unclassified' ) ;
#41 = CC_DESIGN_PERSON_AND_ORGANIZATION_ASSIGNMENT ( #181, #36, ( #179 ) ) ;
#42 = COORDINATED_UNIVERSAL_TIME_OFFSET ( 1, 0, .AHEAD. ) ;
#43 = ADVANCED_BREP_SHAPE_REPRESENTATION ( '55639', ( #18, #160, #189 ), #58 ) ;
#44 = FACE_OUTER_BOUND ( 'NONE', #159, .T. ) ;
#45 = FACE_OUTER_BOUND ( 'NONE', #175, .T. ) ;
#46 = PLANE ( 'NONE',  #154 ) ;
#47 = CARTESIAN_POINT ( 'NONE',  ( 5.586370142149013368E-14, -1.959434878635765131E-15, 16.00000000000000000 ) ) ;
#48 = CIRCLE ( 'NONE', #166, 0.9499999999999999556 ) ;
#49 = FACE_OUTER_BOUND ( 'NONE', #192, .T. ) ;
#50 = PERSON_AND_ORGANIZATION_ROLE ( 'creator' ) ;
#51 = ADVANCED_FACE ( 'NONE', ( #164 ), #184, .T. ) ;
#52 = DATE_AND_TIME ( #39, #73 ) ;
#53 = AXIS2_PLACEMENT_3D ( 'NONE', #149, #113, #134 ) ;
#54 =( LENGTH_UNIT ( ) NAMED_UNIT ( * ) SI_UNIT ( .MILLI., .METRE. ) );
#55 = PERSON_AND_ORGANIZATION ( #81, #125 ) ;
#56 = APPROVAL_ROLE ( '' ) ;
#57 = CC_DESIGN_DATE_AND_TIME_ASSIGNMENT ( #52, #106, ( #173 ) ) ;
#58 =( GEOMETRIC_REPRESENTATION_CONTEXT ( 3 ) GLOBAL_UNCERTAINTY_ASSIGNED_CONTEXT ( ( #59 ) ) GLOBAL_UNIT_ASSIGNED_CONTEXT ( ( #54, #6, #82 ) ) REPRESENTATION_CONTEXT ( 'NONE', 'WORKASPACE' ) );
#59 = UNCERTAINTY_MEASURE_WITH_UNIT (LENGTH_MEASURE( 1.000000000000000082E-05 ), #54, 'distance_accuracy_value', 'NONE');
#60 = DIRECTION ( 'NONE',  ( -3.491481338843133355E-15, 1.224646799147353207E-16, -1.000000000000000000 ) ) ;
#61 = CC_DESIGN_PERSON_AND_ORGANIZATION_ASSIGNMENT ( #84, #105, ( #200 ) ) ;
#62 = CIRCLE ( 'NONE', #114, 0.9499999999999954037 ) ;
#63 = ORIENTED_EDGE ( 'NONE', *, *, #68, .T. ) ;
#64 = DIRECTION ( 'NONE',  ( 0.0000000000000000000, 1.000000000000000000, 0.0000000000000000000 ) ) ;
#65 = DIRECTION ( 'NONE',  ( 0.0000000000000000000, 1.000000000000000000, 0.0000000000000000000 ) ) ;
#66 = ORIENTED_EDGE ( 'NONE', *, *, #68, .F. ) ;
#67 = CC_DESIGN_APPROVAL ( #20, ( #179 ) ) ;
#68 = EDGE_CURVE ( 'NONE', #199, #199, #48, .T. ) ;
#69 = DIRECTION ( 'NONE',  ( 1.000000000000000000, 0.0000000000000000000, 0.0000000000000000000 ) ) ;
#70 = CARTESIAN_POINT ( 'NONE',  ( 1.546699262277442620E-15, 0.9499999999999952927, 0.4429922752472524317 ) ) ;
#71 = CALENDAR_DATE ( 2021, 6, 10 ) ;
#72 = DATE_AND_TIME ( #158, #191 ) ;
#73 = LOCAL_TIME ( 13, 20, 12.00000000000000000, #198 ) ;
#74 = ORIENTED_EDGE ( 'NONE', *, *, #88, .F. ) ;
#75 = FACE_BOUND ( 'NONE', #168, .T. ) ;
#76 = AXIS2_PLACEMENT_3D ( 'NONE', #183, #37, #21 ) ;
#77 = FACE_OUTER_BOUND ( 'NONE', #91, .T. ) ;
#78 = APPROVAL ( #110, 'UNSPECIFIED' ) ;
#79 = FACE_OUTER_BOUND ( 'NONE', #87, .T. ) ;
#80 = CARTESIAN_POINT ( 'NONE',  ( 1.326762908760390423E-13, -4.653657836759941941E-15, 38.00000000000000000 ) ) ;
#81 = PERSON ( 'UNSPECIFIED', 'UNSPECIFIED', 'UNSPECIFIED', ('UNSPECIFIED'), ('UNSPECIFIED'), ('UNSPECIFIED') ) ;
#82 =( NAMED_UNIT ( * ) SI_UNIT ( $, .STERADIAN. ) SOLID_ANGLE_UNIT ( ) );
#83 = VERTEX_POINT ( 'NONE', #152 ) ;
#84 = PERSON_AND_ORGANIZATION ( #81, #125 ) ;
#85 = APPROVAL_PERSON_ORGANIZATION ( #38, #20, #24 ) ;
#86 = COORDINATED_UNIVERSAL_TIME_OFFSET ( 1, 0, .AHEAD. ) ;
#87 = EDGE_LOOP ( 'NONE', ( #162 ) ) ;
#88 = EDGE_CURVE ( 'NONE', #83, #83, #119, .T. ) ;
#89 = AXIS2_PLACEMENT_3D ( 'NONE', #1, #60, #97 ) ;
#90 = DATE_AND_TIME ( #9, #13 ) ;
#91 = EDGE_LOOP ( 'NONE', ( #145 ) ) ;
#92 = CC_DESIGN_APPROVAL ( #78, ( #107 ) ) ;
#93 = CARTESIAN_POINT ( 'NONE',  ( 1.319779946082704535E-13, -4.629164900776995227E-15, 37.79999999999999716 ) ) ;
#94 = DIRECTION ( 'NONE',  ( -3.491481338843133355E-15, 1.224646799147353207E-16, -1.000000000000000000 ) ) ;
#95 = APPLICATION_CONTEXT ( 'configuration controlled 3d designs of mechanical parts and assemblies' ) ;
#96 = PRODUCT_RELATED_PRODUCT_CATEGORY ( 'detail', '', ( #200 ) ) ;
#97 = DIRECTION ( 'NONE',  ( 0.0000000000000000000, 1.000000000000000000, 0.0000000000000000000 ) ) ;
#98 = CONICAL_SURFACE ( 'NONE', #174, 0.7500000000000000000, 0.7853981633974512766 ) ;
#99 = DIRECTION ( 'NONE',  ( -3.491481338843133355E-15, 1.224646799147353207E-16, -1.000000000000000000 ) ) ;
#100 = DIRECTION ( 'NONE',  ( -3.491481338843133355E-15, 1.224646799147353207E-16, -1.000000000000000000 ) ) ;
#101 = ADVANCED_FACE ( 'NONE', ( #49, #132 ), #180, .T. ) ;
#102 = VERTEX_POINT ( 'NONE', #185 ) ;
#103 = VERTEX_POINT ( 'NONE', #70 ) ;
#104 = CC_DESIGN_PERSON_AND_ORGANIZATION_ASSIGNMENT ( #136, #50, ( #173 ) ) ;
#105 = PERSON_AND_ORGANIZATION_ROLE ( 'design_owner' ) ;
#106 = DATE_TIME_ROLE ( 'creation_date' ) ;
#107 = SECURITY_CLASSIFICATION ( '', '', #40 ) ;
#108 = ADVANCED_FACE ( 'NONE', ( #44, #45 ), #35, .T. ) ;
#109 = CLOSED_SHELL ( 'NONE', ( #51, #101, #182 ) ) ;
#110 = APPROVAL_STATUS ( 'not_yet_approved' ) ;
#111 = DIRECTION ( 'NONE',  ( 4.275831445896958607E-31, 1.000000000000000000, 1.224646799147353207E-16 ) ) ;
#112 = CARTESIAN_POINT ( 'NONE',  ( 0.0000000000000000000, 0.0000000000000000000, 0.0000000000000000000 ) ) ;
#113 = DIRECTION ( 'NONE',  ( -3.491481338843133355E-15, 1.224646799147353207E-16, -1.000000000000000000 ) ) ;
#114 = AXIS2_PLACEMENT_3D ( 'NONE', #4, #165, #190 ) ;
#115 = DIRECTION ( 'NONE',  ( 0.0000000000000000000, 1.000000000000000000, 0.0000000000000000000 ) ) ;
#116 = PERSON_AND_ORGANIZATION_ROLE ( 'creator' ) ;
#117 = APPLICATION_PROTOCOL_DEFINITION ( 'international standard', 'config_control_design', 1994, #141 ) ;
#118 = DATE_AND_TIME ( #71, #203 ) ;
#119 = CIRCLE ( 'NONE', #187, 0.7500000000000000000 ) ;
#120 = DIRECTION ( 'NONE',  ( 0.0000000000000000000, 0.0000000000000000000, 1.000000000000000000 ) ) ;
#121 = DATE_AND_TIME ( #8, #23 ) ;
#122 = PERSON_AND_ORGANIZATION_ROLE ( 'classification_officer' ) ;
#123 = CLOSED_SHELL ( 'NONE', ( #139, #108, #129, #163 ) ) ;
#124 = EDGE_CURVE ( 'NONE', #102, #102, #138, .T. ) ;
#125 = ORGANIZATION ( 'UNSPECIFIED', 'UNSPECIFIED', '' ) ;
#126 = DESIGN_CONTEXT ( 'detailed design', #95, 'design' ) ;
#127 = CARTESIAN_POINT ( 'NONE',  ( 1.326762908760390423E-13, -4.653657836759941941E-15, 38.00000000000000000 ) ) ;
#128 = CC_DESIGN_SECURITY_CLASSIFICATION ( #107, ( #179 ) ) ;
#129 = ADVANCED_FACE ( 'NONE', ( #15, #75 ), #98, .T. ) ;
#130 = DIRECTION ( 'NONE',  ( -4.054589356604726834E-31, -1.000000000000000000, -1.141265444721589181E-16 ) ) ;
#131 = FACE_OUTER_BOUND ( 'NONE', #30, .T. ) ;
#132 = FACE_OUTER_BOUND ( 'NONE', #177, .T. ) ;
#133 = APPROVAL_PERSON_ORGANIZATION ( #188, #78, #56 ) ;
#134 = DIRECTION ( 'NONE',  ( 4.275831445896958607E-31, 1.000000000000000000, 1.224646799147353207E-16 ) ) ;
#135 = APPROVAL_ROLE ( '' ) ;
#136 = PERSON_AND_ORGANIZATION ( #81, #125 ) ;
#137 = APPROVAL ( #150, 'UNSPECIFIED' ) ;
#138 = CIRCLE ( 'NONE', #89, 0.9499999999999972911 ) ;
#139 = ADVANCED_FACE ( 'NONE', ( #77 ), #194, .F. ) ;
#140 = APPROVAL_DATE_TIME ( #118, #20 ) ;
#141 = APPLICATION_CONTEXT ( 'configuration controlled 3d designs of mechanical parts and assemblies' ) ;
#142 = CC_DESIGN_PERSON_AND_ORGANIZATION_ASSIGNMENT ( #202, #122, ( #107 ) ) ;
#143 = CC_DESIGN_APPROVAL ( #137, ( #173 ) ) ;
#144 = DIRECTION ( 'NONE',  ( -3.491481338843133355E-15, 1.224646799147353207E-16, -1.000000000000000000 ) ) ;
#145 = ORIENTED_EDGE ( 'NONE', *, *, #25, .T. ) ;
#146 = CIRCLE ( 'NONE', #16, 0.9499999999999972911 ) ;
#147 = DIRECTION ( 'NONE',  ( 3.491481338843133355E-15, -1.224646799147353207E-16, 1.000000000000000000 ) ) ;
#148 = PLANE ( 'NONE',  #76 ) ;
#149 = CARTESIAN_POINT ( 'NONE',  ( 0.0000000000000000000, 0.0000000000000000000, 0.0000000000000000000 ) ) ;
#150 = APPROVAL_STATUS ( 'not_yet_approved' ) ;
#151 = MECHANICAL_CONTEXT ( 'NONE', #141, 'mechanical' ) ;
#152 = CARTESIAN_POINT ( 'NONE',  ( 1.326762908760390423E-13, 0.7499999999999953371, 38.00000000000000000 ) ) ;
#153 = APPLICATION_PROTOCOL_DEFINITION ( 'international standard', 'config_control_design', 1994, #95 ) ;
#154 = AXIS2_PLACEMENT_3D ( 'NONE', #33, #99, #167 ) ;
#155 = VERTEX_POINT ( 'NONE', #7 ) ;
#156 = SHAPE_DEFINITION_REPRESENTATION ( #172, #43 ) ;
#157 = ORIENTED_EDGE ( 'NONE', *, *, #10, .T. ) ;
#158 = CALENDAR_DATE ( 2021, 6, 10 ) ;
#159 = EDGE_LOOP ( 'NONE', ( #12 ) ) ;
#160 = MANIFOLD_SOLID_BREP ( 'Corps-Déplacer/Copier1[2]', #109 ) ;
#161 = AXIS2_PLACEMENT_3D ( 'NONE', #112, #100, #111 ) ;
#162 = ORIENTED_EDGE ( 'NONE', *, *, #124, .F. ) ;
#163 = ADVANCED_FACE ( 'NONE', ( #131 ), #46, .F. ) ;
#164 = FACE_OUTER_BOUND ( 'NONE', #26, .T. ) ;
#165 = DIRECTION ( 'NONE',  ( -3.491481338843133355E-15, 1.224646799147353207E-16, -1.000000000000000000 ) ) ;
#166 = AXIS2_PLACEMENT_3D ( 'NONE', #93, #2, #65 ) ;
#167 = DIRECTION ( 'NONE',  ( 4.275831445896958607E-31, 1.000000000000000000, 1.224646799147353207E-16 ) ) ;
#168 = EDGE_LOOP ( 'NONE', ( #32 ) ) ;
#169 = APPROVAL_DATE_TIME ( #121, #137 ) ;
#170 = APPROVAL_STATUS ( 'not_yet_approved' ) ;
#171 = AXIS2_PLACEMENT_3D ( 'NONE', #19, #5, #130 ) ;
#172 = PRODUCT_DEFINITION_SHAPE ( 'NONE', 'NONE',  #173 ) ;
#173 = PRODUCT_DEFINITION ( 'UNKNOWN', '', #179, #126 ) ;
#174 = AXIS2_PLACEMENT_3D ( 'NONE', #127, #176, #64 ) ;
#175 = EDGE_LOOP ( 'NONE', ( #63 ) ) ;
#176 = DIRECTION ( 'NONE',  ( -3.491481338843133355E-15, 1.224646799147353207E-16, -1.000000000000000000 ) ) ;
#177 = EDGE_LOOP ( 'NONE', ( #14 ) ) ;
#178 = CC_DESIGN_PERSON_AND_ORGANIZATION_ASSIGNMENT ( #201, #116, ( #179 ) ) ;
#179 = PRODUCT_DEFINITION_FORMATION_WITH_SPECIFIED_SOURCE ( 'ANY', '', #200, .NOT_KNOWN. ) ;
#180 = CYLINDRICAL_SURFACE ( 'NONE', #53, 0.9499999999999964029 ) ;
#181 = PERSON_AND_ORGANIZATION ( #81, #125 ) ;
#182 = ADVANCED_FACE ( 'NONE', ( #79 ), #148, .T. ) ;
#183 = CARTESIAN_POINT ( 'NONE',  ( 5.586370142149013368E-14, 7.123858967643773004E-33, 16.00000000000000000 ) ) ;
#184 = CONICAL_SURFACE ( 'NONE', #171, 0.9499999999999954037, 1.134464013796309345 ) ;
#185 = CARTESIAN_POINT ( 'NONE',  ( 5.586370142149013368E-14, 0.9499999999999952927, 16.00000000000000000 ) ) ;
#186 = CARTESIAN_POINT ( 'NONE',  ( 1.319779946082704535E-13, 0.9499999999999952927, 37.79999999999999716 ) ) ;
#187 = AXIS2_PLACEMENT_3D ( 'NONE', #80, #94, #17 ) ;
#188 = PERSON_AND_ORGANIZATION ( #81, #125 ) ;
#189 = AXIS2_PLACEMENT_3D ( 'NONE', #22, #120, #69 ) ;
#190 = DIRECTION ( 'NONE',  ( 4.054589356604726834E-31, 1.000000000000000000, 1.141265444721589181E-16 ) ) ;
#191 = LOCAL_TIME ( 13, 20, 12.00000000000000000, #28 ) ;
#192 = EDGE_LOOP ( 'NONE', ( #196 ) ) ;
#193 = CC_DESIGN_DATE_AND_TIME_ASSIGNMENT ( #90, #29, ( #107 ) ) ;
#194 = PLANE ( 'NONE',  #195 ) ;
#195 = AXIS2_PLACEMENT_3D ( 'NONE', #31, #147, #3 ) ;
#196 = ORIENTED_EDGE ( 'NONE', *, *, #10, .F. ) ;
#197 = COORDINATED_UNIVERSAL_TIME_OFFSET ( 1, 0, .AHEAD. ) ;
#198 = COORDINATED_UNIVERSAL_TIME_OFFSET ( 1, 0, .AHEAD. ) ;
#199 = VERTEX_POINT ( 'NONE', #186 ) ;
#200 = PRODUCT ( '55639', '55639', '', ( #151 ) ) ;
#201 = PERSON_AND_ORGANIZATION ( #81, #125 ) ;
#202 = PERSON_AND_ORGANIZATION ( #81, #125 ) ;
#203 = LOCAL_TIME ( 13, 20, 12.00000000000000000, #86 ) ;
ENDSEC;
END-ISO-10303-21;
