ISO-10303-21;
HEADER;
FILE_DESCRIPTION (( 'STEP AP203' ),
    '1' );
FILE_NAME ('55637.step',
    '2021-10-06T11:20:11',
    ( '' ),
    ( '' ),
    'SwSTEP 2.0',
    'SolidWorks 2019',
    '' );
FILE_SCHEMA (( 'CONFIG_CONTROL_DESIGN' ));
ENDSEC;

DATA;
#1 = SECURITY_CLASSIFICATION_LEVEL ( 'unclassified' ) ;
#2 = CYLINDRICAL_SURFACE ( 'NONE', #192, 0.9249999999999987121 ) ;
#3 = CARTESIAN_POINT ( 'NONE',  ( 1.319779946082704535E-13, -4.629164900776995227E-15, 37.79999999999999716 ) ) ;
#4 = DIRECTION ( 'NONE',  ( -4.275831445896958607E-31, -1.000000000000000000, -1.224646799147353207E-16 ) ) ;
#5 = CC_DESIGN_APPROVAL ( #144, ( #92 ) ) ;
#6 = ADVANCED_FACE ( 'NONE', ( #78, #56 ), #2, .T. ) ;
#7 = AXIS2_PLACEMENT_3D ( 'NONE', #156, #159, #16 ) ;
#8 = EDGE_LOOP ( 'NONE', ( #111 ) ) ;
#9 =( NAMED_UNIT ( * ) SI_UNIT ( $, .STERADIAN. ) SOLID_ANGLE_UNIT ( ) );
#10 = ADVANCED_BREP_SHAPE_REPRESENTATION ( '55637', ( #175, #113, #67 ), #146 ) ;
#11 = CC_DESIGN_APPROVAL ( #17, ( #34 ) ) ;
#12 = APPLICATION_CONTEXT ( 'configuration controlled 3d designs of mechanical parts and assemblies' ) ;
#13 = CC_DESIGN_PERSON_AND_ORGANIZATION_ASSIGNMENT ( #42, #94, ( #162 ) ) ;
#14 = CC_DESIGN_PERSON_AND_ORGANIZATION_ASSIGNMENT ( #26, #137, ( #34 ) ) ;
#15 = CC_DESIGN_APPROVAL ( #188, ( #162 ) ) ;
#16 = DIRECTION ( 'NONE',  ( -4.275831445896958607E-31, -1.000000000000000000, -1.224646799147353207E-16 ) ) ;
#17 = APPROVAL ( #91, 'UNSPECIFIED' ) ;
#18 = COORDINATED_UNIVERSAL_TIME_OFFSET ( 1, 0, .AHEAD. ) ;
#19 = CARTESIAN_POINT ( 'NONE',  ( 5.586370142149013368E-14, 0.9249999999999953815, 16.00000000000000000 ) ) ;
#20 = EDGE_LOOP ( 'NONE', ( #195 ) ) ;
#21 = CC_DESIGN_PERSON_AND_ORGANIZATION_ASSIGNMENT ( #45, #202, ( #92 ) ) ;
#22 = DATE_TIME_ROLE ( 'creation_date' ) ;
#23 = CARTESIAN_POINT ( 'NONE',  ( 1.319779946082704535E-13, 0.9249999999999953815, 37.79999999999999716 ) ) ;
#24 = CLOSED_SHELL ( 'NONE', ( #127, #6, #71, #30 ) ) ;
#25 = VERTEX_POINT ( 'NONE', #51 ) ;
#26 = PERSON_AND_ORGANIZATION ( #150, #27 ) ;
#27 = ORGANIZATION ( 'UNSPECIFIED', 'UNSPECIFIED', '' ) ;
#28 = EDGE_CURVE ( 'NONE', #121, #121, #172, .T. ) ;
#29 = PERSON_AND_ORGANIZATION_ROLE ( 'creator' ) ;
#30 = ADVANCED_FACE ( 'NONE', ( #73 ), #117, .F. ) ;
#31 = DIRECTION ( 'NONE',  ( -3.491481338843133355E-15, 1.224646799147353207E-16, -1.000000000000000000 ) ) ;
#32 = PLANE ( 'NONE',  #7 ) ;
#33 = APPROVAL_PERSON_ORGANIZATION ( #189, #144, #166 ) ;
#34 = PRODUCT_DEFINITION ( 'UNKNOWN', '', #162, #118 ) ;
#35 = COORDINATED_UNIVERSAL_TIME_OFFSET ( 1, 0, .AHEAD. ) ;
#36 = EDGE_LOOP ( 'NONE', ( #181 ) ) ;
#37 = AXIS2_PLACEMENT_3D ( 'NONE', #148, #70, #87 ) ;
#38 =( NAMED_UNIT ( * ) PLANE_ANGLE_UNIT ( ) SI_UNIT ( $, .RADIAN. ) );
#39 = ORIENTED_EDGE ( 'NONE', *, *, #110, .F. ) ;
#40 = LOCAL_TIME ( 13, 20, 11.00000000000000000, #116 ) ;
#41 = ORIENTED_EDGE ( 'NONE', *, *, #165, .T. ) ;
#42 = PERSON_AND_ORGANIZATION ( #150, #27 ) ;
#43 = EDGE_LOOP ( 'NONE', ( #39 ) ) ;
#44 = AXIS2_PLACEMENT_3D ( 'NONE', #187, #151, #185 ) ;
#45 = PERSON_AND_ORGANIZATION ( #150, #27 ) ;
#46 = CARTESIAN_POINT ( 'NONE',  ( 1.326762908760390423E-13, 5.436629212149164721E-33, 38.00000000000000000 ) ) ;
#47 = PLANE ( 'NONE',  #84 ) ;
#48 = DIRECTION ( 'NONE',  ( 4.275831445896957731E-31, 1.000000000000000000, 1.224646799147353207E-16 ) ) ;
#49 = CARTESIAN_POINT ( 'NONE',  ( 1.505996650112246849E-15, 0.9249999999999953815, 0.4313345837933773019 ) ) ;
#50 = EDGE_LOOP ( 'NONE', ( #41 ) ) ;
#51 = CARTESIAN_POINT ( 'NONE',  ( 5.586370142149013368E-14, 0.9249999999999953815, 16.00000000000000000 ) ) ;
#52 = ORIENTED_EDGE ( 'NONE', *, *, #28, .T. ) ;
#53 = CIRCLE ( 'NONE', #115, 0.9249999999999973799 ) ;
#54 = PERSON_AND_ORGANIZATION_ROLE ( 'design_owner' ) ;
#55 = LOCAL_TIME ( 13, 20, 11.00000000000000000, #153 ) ;
#56 = FACE_OUTER_BOUND ( 'NONE', #68, .T. ) ;
#57 = PRODUCT_RELATED_PRODUCT_CATEGORY ( 'detail', '', ( #149 ) ) ;
#58 = DIRECTION ( 'NONE',  ( 4.275831445896958607E-31, 1.000000000000000000, 1.224646799147353454E-16 ) ) ;
#59 = APPROVAL_STATUS ( 'not_yet_approved' ) ;
#60 = CIRCLE ( 'NONE', #123, 0.9250000000000000444 ) ;
#61 = CARTESIAN_POINT ( 'NONE',  ( 5.586370142149013368E-14, -1.959434878635765131E-15, 16.00000000000000000 ) ) ;
#62 = UNCERTAINTY_MEASURE_WITH_UNIT (LENGTH_MEASURE( 1.000000000000000082E-05 ), #194, 'distance_accuracy_value', 'NONE');
#63 = FACE_OUTER_BOUND ( 'NONE', #20, .T. ) ;
#64 = ORIENTED_EDGE ( 'NONE', *, *, #28, .F. ) ;
#65 = DIRECTION ( 'NONE',  ( 0.0000000000000000000, 0.0000000000000000000, 1.000000000000000000 ) ) ;
#66 = DIRECTION ( 'NONE',  ( -3.491481338843133355E-15, 1.224646799147353207E-16, -1.000000000000000000 ) ) ;
#67 = AXIS2_PLACEMENT_3D ( 'NONE', #83, #65, #133 ) ;
#68 = EDGE_LOOP ( 'NONE', ( #135 ) ) ;
#69 = CARTESIAN_POINT ( 'NONE',  ( 1.326762908760390423E-13, 0.7249999999999954259, 38.00000000000000000 ) ) ;
#70 = DIRECTION ( 'NONE',  ( -3.491481338843133355E-15, 1.224646799147353207E-16, -1.000000000000000000 ) ) ;
#71 = ADVANCED_FACE ( 'NONE', ( #183, #164 ), #147, .T. ) ;
#72 = PERSON_AND_ORGANIZATION ( #150, #27 ) ;
#73 = FACE_OUTER_BOUND ( 'NONE', #178, .T. ) ;
#74 = LOCAL_TIME ( 13, 20, 11.00000000000000000, #35 ) ;
#75 = APPROVAL_DATE_TIME ( #170, #144 ) ;
#76 = EDGE_LOOP ( 'NONE', ( #102 ) ) ;
#77 = APPROVAL_DATE_TIME ( #126, #188 ) ;
#78 = FACE_OUTER_BOUND ( 'NONE', #8, .T. ) ;
#79 = LOCAL_TIME ( 13, 20, 11.00000000000000000, #18 ) ;
#80 = FACE_OUTER_BOUND ( 'NONE', #86, .T. ) ;
#81 = DIRECTION ( 'NONE',  ( -3.491481338843133355E-15, 1.224646799147353207E-16, -1.000000000000000000 ) ) ;
#82 = CC_DESIGN_DATE_AND_TIME_ASSIGNMENT ( #128, #154, ( #92 ) ) ;
#83 = CARTESIAN_POINT ( 'NONE',  ( 0.0000000000000000000, 0.0000000000000000000, 0.0000000000000000000 ) ) ;
#84 = AXIS2_PLACEMENT_3D ( 'NONE', #141, #140, #4 ) ;
#85 = CALENDAR_DATE ( 2021, 6, 10 ) ;
#86 = EDGE_LOOP ( 'NONE', ( #109 ) ) ;
#87 = DIRECTION ( 'NONE',  ( 4.164172852729179455E-31, 1.000000000000000000, 1.172110456741091744E-16 ) ) ;
#88 = CC_DESIGN_DATE_AND_TIME_ASSIGNMENT ( #107, #22, ( #34 ) ) ;
#89 = APPROVAL_DATE_TIME ( #163, #17 ) ;
#90 = APPROVAL_STATUS ( 'not_yet_approved' ) ;
#91 = APPROVAL_STATUS ( 'not_yet_approved' ) ;
#92 = SECURITY_CLASSIFICATION ( '', '', #1 ) ;
#93 = APPROVAL_ROLE ( '' ) ;
#94 = PERSON_AND_ORGANIZATION_ROLE ( 'design_supplier' ) ;
#95 = DIRECTION ( 'NONE',  ( -3.491481338843133355E-15, 1.224646799147353207E-16, -1.000000000000000000 ) ) ;
#96 = AXIS2_PLACEMENT_3D ( 'NONE', #169, #31, #142 ) ;
#97 = MECHANICAL_CONTEXT ( 'NONE', #106, 'mechanical' ) ;
#98 = APPLICATION_PROTOCOL_DEFINITION ( 'international standard', 'config_control_design', 1994, #12 ) ;
#99 = ADVANCED_FACE ( 'NONE', ( #63, #171 ), #174, .T. ) ;
#100 = VERTEX_POINT ( 'NONE', #19 ) ;
#101 = CIRCLE ( 'NONE', #37, 0.9249999999999953815 ) ;
#102 = ORIENTED_EDGE ( 'NONE', *, *, #173, .T. ) ;
#103 = ADVANCED_FACE ( 'NONE', ( #132 ), #32, .T. ) ;
#104 = APPROVAL_ROLE ( '' ) ;
#105 = DIRECTION ( 'NONE',  ( 0.0000000000000000000, 1.000000000000000000, 0.0000000000000000000 ) ) ;
#106 = APPLICATION_CONTEXT ( 'configuration controlled 3d designs of mechanical parts and assemblies' ) ;
#107 = DATE_AND_TIME ( #85, #79 ) ;
#108 = AXIS2_PLACEMENT_3D ( 'NONE', #61, #130, #191 ) ;
#109 = ORIENTED_EDGE ( 'NONE', *, *, #180, .T. ) ;
#110 = EDGE_CURVE ( 'NONE', #179, #179, #60, .T. ) ;
#111 = ORIENTED_EDGE ( 'NONE', *, *, #180, .F. ) ;
#112 = CALENDAR_DATE ( 2021, 6, 10 ) ;
#113 = MANIFOLD_SOLID_BREP ( 'Corps-Déplacer/Copier1[2]', #157 ) ;
#114 = SHAPE_DEFINITION_REPRESENTATION ( #168, #10 ) ;
#115 = AXIS2_PLACEMENT_3D ( 'NONE', #177, #66, #105 ) ;
#116 = COORDINATED_UNIVERSAL_TIME_OFFSET ( 1, 0, .AHEAD. ) ;
#117 = PLANE ( 'NONE',  #190 ) ;
#118 = DESIGN_CONTEXT ( 'detailed design', #12, 'design' ) ;
#119 = CARTESIAN_POINT ( 'NONE',  ( 0.0000000000000000000, 0.0000000000000000000, 0.0000000000000000000 ) ) ;
#120 = CC_DESIGN_PERSON_AND_ORGANIZATION_ASSIGNMENT ( #184, #29, ( #162 ) ) ;
#121 = VERTEX_POINT ( 'NONE', #69 ) ;
#122 = EDGE_LOOP ( 'NONE', ( #52 ) ) ;
#123 = AXIS2_PLACEMENT_3D ( 'NONE', #3, #81, #129 ) ;
#124 = DIRECTION ( 'NONE',  ( 4.275831445896958607E-31, 1.000000000000000000, 1.224646799147353207E-16 ) ) ;
#125 = DIRECTION ( 'NONE',  ( -3.491481338843133355E-15, 1.224646799147353207E-16, -1.000000000000000000 ) ) ;
#126 = DATE_AND_TIME ( #155, #40 ) ;
#127 = ADVANCED_FACE ( 'NONE', ( #80 ), #47, .F. ) ;
#128 = DATE_AND_TIME ( #112, #197 ) ;
#129 = DIRECTION ( 'NONE',  ( 0.0000000000000000000, 1.000000000000000000, 0.0000000000000000000 ) ) ;
#130 = DIRECTION ( 'NONE',  ( -3.491481338843133355E-15, 1.224646799147353207E-16, -1.000000000000000000 ) ) ;
#131 = AXIS2_PLACEMENT_3D ( 'NONE', #119, #95, #48 ) ;
#132 = FACE_OUTER_BOUND ( 'NONE', #36, .T. ) ;
#133 = DIRECTION ( 'NONE',  ( 1.000000000000000000, 0.0000000000000000000, 0.0000000000000000000 ) ) ;
#134 = DIRECTION ( 'NONE',  ( -4.164172852729179455E-31, -1.000000000000000000, -1.172110456741091744E-16 ) ) ;
#135 = ORIENTED_EDGE ( 'NONE', *, *, #110, .T. ) ;
#136 = PERSON_AND_ORGANIZATION ( #150, #27 ) ;
#137 = PERSON_AND_ORGANIZATION_ROLE ( 'creator' ) ;
#138 = APPLICATION_PROTOCOL_DEFINITION ( 'international standard', 'config_control_design', 1994, #106 ) ;
#139 = COORDINATED_UNIVERSAL_TIME_OFFSET ( 1, 0, .AHEAD. ) ;
#140 = DIRECTION ( 'NONE',  ( 3.491481338843133355E-15, -1.224646799147353207E-16, 1.000000000000000000 ) ) ;
#141 = CARTESIAN_POINT ( 'NONE',  ( 5.586370142149013368E-14, 6.936388994811042172E-33, 16.00000000000000000 ) ) ;
#142 = DIRECTION ( 'NONE',  ( 0.0000000000000000000, 1.000000000000000000, 0.0000000000000000000 ) ) ;
#143 = CIRCLE ( 'NONE', #108, 0.9249999999999973799 ) ;
#144 = APPROVAL ( #59, 'UNSPECIFIED' ) ;
#145 = APPROVAL_PERSON_ORGANIZATION ( #136, #17, #104 ) ;
#146 =( GEOMETRIC_REPRESENTATION_CONTEXT ( 3 ) GLOBAL_UNCERTAINTY_ASSIGNED_CONTEXT ( ( #62 ) ) GLOBAL_UNIT_ASSIGNED_CONTEXT ( ( #194, #38, #9 ) ) REPRESENTATION_CONTEXT ( 'NONE', 'WORKASPACE' ) );
#147 = CONICAL_SURFACE ( 'NONE', #96, 0.7250000000000000888, 0.7853981633974512766 ) ;
#148 = CARTESIAN_POINT ( 'NONE',  ( 1.505996650112246455E-15, -5.282325174041151742E-17, 0.4313345837933771909 ) ) ;
#149 = PRODUCT ( '55637', '55637', '', ( #97 ) ) ;
#150 = PERSON ( 'UNSPECIFIED', 'UNSPECIFIED', 'UNSPECIFIED', ('UNSPECIFIED'), ('UNSPECIFIED'), ('UNSPECIFIED') ) ;
#151 = DIRECTION ( 'NONE',  ( -3.491481338843133355E-15, 1.224646799147353207E-16, -1.000000000000000000 ) ) ;
#152 = CONICAL_SURFACE ( 'NONE', #182, 0.9249999999999953815, 1.134464013796309123 ) ;
#153 = COORDINATED_UNIVERSAL_TIME_OFFSET ( 1, 0, .AHEAD. ) ;
#154 = DATE_TIME_ROLE ( 'classification_date' ) ;
#155 = CALENDAR_DATE ( 2021, 6, 10 ) ;
#156 = CARTESIAN_POINT ( 'NONE',  ( 5.586370142149013368E-14, 6.936388994811042172E-33, 16.00000000000000000 ) ) ;
#157 = CLOSED_SHELL ( 'NONE', ( #198, #99, #103 ) ) ;
#158 = CC_DESIGN_PERSON_AND_ORGANIZATION_ASSIGNMENT ( #72, #54, ( #149 ) ) ;
#159 = DIRECTION ( 'NONE',  ( 3.491481338843133355E-15, -1.224646799147353207E-16, 1.000000000000000000 ) ) ;
#160 = CALENDAR_DATE ( 2021, 6, 10 ) ;
#161 = CARTESIAN_POINT ( 'NONE',  ( 1.505996650112246455E-15, -5.282325174041151742E-17, 0.4313345837933771909 ) ) ;
#162 = PRODUCT_DEFINITION_FORMATION_WITH_SPECIFIED_SOURCE ( 'ANY', '', #149, .NOT_KNOWN. ) ;
#163 = DATE_AND_TIME ( #160, #74 ) ;
#164 = FACE_BOUND ( 'NONE', #122, .T. ) ;
#165 = EDGE_CURVE ( 'NONE', #25, #25, #143, .T. ) ;
#166 = APPROVAL_ROLE ( '' ) ;
#167 = APPROVAL_PERSON_ORGANIZATION ( #199, #188, #93 ) ;
#168 = PRODUCT_DEFINITION_SHAPE ( 'NONE', 'NONE',  #34 ) ;
#169 = CARTESIAN_POINT ( 'NONE',  ( 1.326762908760390423E-13, -4.653657836759941941E-15, 38.00000000000000000 ) ) ;
#170 = DATE_AND_TIME ( #186, #55 ) ;
#171 = FACE_OUTER_BOUND ( 'NONE', #50, .T. ) ;
#172 = CIRCLE ( 'NONE', #44, 0.7250000000000000888 ) ;
#173 = EDGE_CURVE ( 'NONE', #193, #193, #101, .T. ) ;
#174 = CYLINDRICAL_SURFACE ( 'NONE', #131, 0.9249999999999963807 ) ;
#175 = MANIFOLD_SOLID_BREP ( 'Corps-Déplacer/Copier1[1]', #24 ) ;
#176 = CC_DESIGN_SECURITY_CLASSIFICATION ( #92, ( #162 ) ) ;
#177 = CARTESIAN_POINT ( 'NONE',  ( 5.586370142149013368E-14, -1.959434878635765131E-15, 16.00000000000000000 ) ) ;
#178 = EDGE_LOOP ( 'NONE', ( #64 ) ) ;
#179 = VERTEX_POINT ( 'NONE', #23 ) ;
#180 = EDGE_CURVE ( 'NONE', #100, #100, #53, .T. ) ;
#181 = ORIENTED_EDGE ( 'NONE', *, *, #165, .F. ) ;
#182 = AXIS2_PLACEMENT_3D ( 'NONE', #161, #196, #134 ) ;
#183 = FACE_OUTER_BOUND ( 'NONE', #43, .T. ) ;
#184 = PERSON_AND_ORGANIZATION ( #150, #27 ) ;
#185 = DIRECTION ( 'NONE',  ( 0.0000000000000000000, 1.000000000000000000, 0.0000000000000000000 ) ) ;
#186 = CALENDAR_DATE ( 2021, 6, 10 ) ;
#187 = CARTESIAN_POINT ( 'NONE',  ( 1.326762908760390423E-13, -4.653657836759941941E-15, 38.00000000000000000 ) ) ;
#188 = APPROVAL ( #90, 'UNSPECIFIED' ) ;
#189 = PERSON_AND_ORGANIZATION ( #150, #27 ) ;
#190 = AXIS2_PLACEMENT_3D ( 'NONE', #46, #201, #124 ) ;
#191 = DIRECTION ( 'NONE',  ( 0.0000000000000000000, 1.000000000000000000, 0.0000000000000000000 ) ) ;
#192 = AXIS2_PLACEMENT_3D ( 'NONE', #203, #125, #58 ) ;
#193 = VERTEX_POINT ( 'NONE', #49 ) ;
#194 =( LENGTH_UNIT ( ) NAMED_UNIT ( * ) SI_UNIT ( .MILLI., .METRE. ) );
#195 = ORIENTED_EDGE ( 'NONE', *, *, #173, .F. ) ;
#196 = DIRECTION ( 'NONE',  ( 3.491481338843133355E-15, -1.224646799147353207E-16, 1.000000000000000000 ) ) ;
#197 = LOCAL_TIME ( 13, 20, 11.00000000000000000, #139 ) ;
#198 = ADVANCED_FACE ( 'NONE', ( #200 ), #152, .T. ) ;
#199 = PERSON_AND_ORGANIZATION ( #150, #27 ) ;
#200 = FACE_OUTER_BOUND ( 'NONE', #76, .T. ) ;
#201 = DIRECTION ( 'NONE',  ( -3.491481338843133355E-15, 1.224646799147353207E-16, -1.000000000000000000 ) ) ;
#202 = PERSON_AND_ORGANIZATION_ROLE ( 'classification_officer' ) ;
#203 = CARTESIAN_POINT ( 'NONE',  ( 0.0000000000000000000, 0.0000000000000000000, 0.0000000000000000000 ) ) ;
ENDSEC;
END-ISO-10303-21;
