ISO-10303-21;
HEADER;
FILE_DESCRIPTION (( 'STEP AP203' ),
    '1' );
FILE_NAME ('55635.step',
    '2021-10-06T11:20:09',
    ( '' ),
    ( '' ),
    'SwSTEP 2.0',
    'SolidWorks 2019',
    '' );
FILE_SCHEMA (( 'CONFIG_CONTROL_DESIGN' ));
ENDSEC;

DATA;
#1 = FACE_OUTER_BOUND ( 'NONE', #164, .T. ) ;
#2 = CC_DESIGN_PERSON_AND_ORGANIZATION_ASSIGNMENT ( #162, #23, ( #178 ) ) ;
#3 = FACE_BOUND ( 'NONE', #181, .T. ) ;
#4 = CARTESIAN_POINT ( 'NONE',  ( 1.465294037947050290E-15, -5.139559628796796023E-17, 0.4196768923395021167 ) ) ;
#5 = APPROVAL_STATUS ( 'not_yet_approved' ) ;
#6 = CIRCLE ( 'NONE', #124, 0.6999999999999999556 ) ;
#7 = COORDINATED_UNIVERSAL_TIME_OFFSET ( 1, 0, .AHEAD. ) ;
#8 = ORIENTED_EDGE ( 'NONE', *, *, #150, .F. ) ;
#9 = SECURITY_CLASSIFICATION_LEVEL ( 'unclassified' ) ;
#10 = CC_DESIGN_APPROVAL ( #142, ( #140 ) ) ;
#11 = FACE_OUTER_BOUND ( 'NONE', #76, .T. ) ;
#12 = CLOSED_SHELL ( 'NONE', ( #161, #83, #128, #125 ) ) ;
#13 = EDGE_CURVE ( 'NONE', #52, #52, #6, .T. ) ;
#14 = VERTEX_POINT ( 'NONE', #66 ) ;
#15 = CARTESIAN_POINT ( 'NONE',  ( 5.586370142149013368E-14, -1.959434878635765131E-15, 16.00000000000000000 ) ) ;
#16 = VERTEX_POINT ( 'NONE', #174 ) ;
#17 = FACE_OUTER_BOUND ( 'NONE', #182, .T. ) ;
#18 = DIRECTION ( 'NONE',  ( -3.491481338843133355E-15, 1.224646799147353207E-16, -1.000000000000000000 ) ) ;
#19 = CARTESIAN_POINT ( 'NONE',  ( 5.586370142149013368E-14, 0.8999999999999953593, 16.00000000000000000 ) ) ;
#20 = AXIS2_PLACEMENT_3D ( 'NONE', #4, #167, #80 ) ;
#21 = EDGE_LOOP ( 'NONE', ( #196 ) ) ;
#22 = DESIGN_CONTEXT ( 'detailed design', #184, 'design' ) ;
#23 = PERSON_AND_ORGANIZATION_ROLE ( 'design_owner' ) ;
#24 = DATE_TIME_ROLE ( 'creation_date' ) ;
#25 = LOCAL_TIME ( 13, 20, 9.000000000000000000, #147 ) ;
#26 = ORIENTED_EDGE ( 'NONE', *, *, #13, .T. ) ;
#27 = PRODUCT_DEFINITION_FORMATION_WITH_SPECIFIED_SOURCE ( 'ANY', '', #178, .NOT_KNOWN. ) ;
#28 = PERSON_AND_ORGANIZATION ( #110, #189 ) ;
#29 = PERSON_AND_ORGANIZATION ( #110, #189 ) ;
#30 = AXIS2_PLACEMENT_3D ( 'NONE', #47, #111, #172 ) ;
#31 = FACE_OUTER_BOUND ( 'NONE', #134, .T. ) ;
#32 = CYLINDRICAL_SURFACE ( 'NONE', #30, 0.8999999999999962474 ) ;
#33 = CYLINDRICAL_SURFACE ( 'NONE', #197, 0.8999999999999986899 ) ;
#34 = CARTESIAN_POINT ( 'NONE',  ( 5.586370142149013368E-14, 6.748919021978309971E-33, 16.00000000000000000 ) ) ;
#35 = AXIS2_PLACEMENT_3D ( 'NONE', #185, #168, #64 ) ;
#36 = FACE_OUTER_BOUND ( 'NONE', #105, .T. ) ;
#37 = CC_DESIGN_DATE_AND_TIME_ASSIGNMENT ( #63, #120, ( #140 ) ) ;
#38 = PLANE ( 'NONE',  #90 ) ;
#39 = APPROVAL_STATUS ( 'not_yet_approved' ) ;
#40 = CIRCLE ( 'NONE', #112, 0.9000000000000000222 ) ;
#41 = ORIENTED_EDGE ( 'NONE', *, *, #150, .T. ) ;
#42 = ADVANCED_FACE ( 'NONE', ( #73 ), #131, .T. ) ;
#43 = PERSON_AND_ORGANIZATION_ROLE ( 'creator' ) ;
#44 = AXIS2_PLACEMENT_3D ( 'NONE', #177, #194, #179 ) ;
#45 = APPROVAL_DATE_TIME ( #65, #142 ) ;
#46 = CARTESIAN_POINT ( 'NONE',  ( 1.319779946082704535E-13, 0.8999999999999953593, 37.79999999999999716 ) ) ;
#47 = CARTESIAN_POINT ( 'NONE',  ( 0.0000000000000000000, 0.0000000000000000000, 0.0000000000000000000 ) ) ;
#48 = VERTEX_POINT ( 'NONE', #46 ) ;
#49 = DIRECTION ( 'NONE',  ( 4.275831445896958607E-31, 1.000000000000000000, 1.224646799147353207E-16 ) ) ;
#50 = DIRECTION ( 'NONE',  ( 0.0000000000000000000, 1.000000000000000000, 0.0000000000000000000 ) ) ;
#51 = MANIFOLD_SOLID_BREP ( 'Corps-Déplacer/Copier1[2]', #72 ) ;
#52 = VERTEX_POINT ( 'NONE', #71 ) ;
#53 = AXIS2_PLACEMENT_3D ( 'NONE', #119, #61, #160 ) ;
#54 = CC_DESIGN_SECURITY_CLASSIFICATION ( #140, ( #27 ) ) ;
#55 = ADVANCED_FACE ( 'NONE', ( #36 ), #78, .T. ) ;
#56 = MANIFOLD_SOLID_BREP ( 'Corps-Déplacer/Copier1[1]', #12 ) ;
#57 = EDGE_LOOP ( 'NONE', ( #41 ) ) ;
#58 = DATE_AND_TIME ( #77, #84 ) ;
#59 = APPROVAL_PERSON_ORGANIZATION ( #183, #145, #94 ) ;
#60 = CARTESIAN_POINT ( 'NONE',  ( 1.326762908760390423E-13, -4.653657836759941941E-15, 38.00000000000000000 ) ) ;
#61 = DIRECTION ( 'NONE',  ( 0.0000000000000000000, 0.0000000000000000000, 1.000000000000000000 ) ) ;
#62 = APPLICATION_PROTOCOL_DEFINITION ( 'international standard', 'config_control_design', 1994, #184 ) ;
#63 = DATE_AND_TIME ( #200, #201 ) ;
#64 = DIRECTION ( 'NONE',  ( -4.275831445896958607E-31, -1.000000000000000000, -1.224646799147353207E-16 ) ) ;
#65 = DATE_AND_TIME ( #82, #152 ) ;
#66 = CARTESIAN_POINT ( 'NONE',  ( 5.586370142149013368E-14, 0.8999999999999953593, 16.00000000000000000 ) ) ;
#67 = AXIS2_PLACEMENT_3D ( 'NONE', #130, #18, #192 ) ;
#68 = FACE_OUTER_BOUND ( 'NONE', #146, .T. ) ;
#69 = DIRECTION ( 'NONE',  ( 0.0000000000000000000, 1.000000000000000000, 0.0000000000000000000 ) ) ;
#70 = DIRECTION ( 'NONE',  ( 3.491481338843133355E-15, -1.224646799147353207E-16, 1.000000000000000000 ) ) ;
#71 = CARTESIAN_POINT ( 'NONE',  ( 1.326762908760390423E-13, 0.6999999999999952927, 38.00000000000000000 ) ) ;
#72 = CLOSED_SHELL ( 'NONE', ( #42, #98, #55 ) ) ;
#73 = FACE_OUTER_BOUND ( 'NONE', #21, .T. ) ;
#74 = UNCERTAINTY_MEASURE_WITH_UNIT (LENGTH_MEASURE( 1.000000000000000082E-05 ), #126, 'distance_accuracy_value', 'NONE');
#75 = ORIENTED_EDGE ( 'NONE', *, *, #100, .T. ) ;
#76 = EDGE_LOOP ( 'NONE', ( #8 ) ) ;
#77 = CALENDAR_DATE ( 2021, 6, 10 ) ;
#78 = PLANE ( 'NONE',  #35 ) ;
#79 = PERSON_AND_ORGANIZATION_ROLE ( 'classification_officer' ) ;
#80 = DIRECTION ( 'NONE',  ( 4.279844320860545916E-31, 1.000000000000000000, 1.204669080539455507E-16 ) ) ;
#81 = AXIS2_PLACEMENT_3D ( 'NONE', #34, #70, #202 ) ;
#82 = CALENDAR_DATE ( 2021, 6, 10 ) ;
#83 = ADVANCED_FACE ( 'NONE', ( #11, #31 ), #33, .T. ) ;
#84 = LOCAL_TIME ( 13, 20, 9.000000000000000000, #118 ) ;
#85 = CC_DESIGN_PERSON_AND_ORGANIZATION_ASSIGNMENT ( #29, #79, ( #140 ) ) ;
#86 = DIRECTION ( 'NONE',  ( -3.491481338843133355E-15, 1.224646799147353207E-16, -1.000000000000000000 ) ) ;
#87 = PLANE ( 'NONE',  #81 ) ;
#88 = DIRECTION ( 'NONE',  ( -3.491481338843133355E-15, 1.224646799147353207E-16, -1.000000000000000000 ) ) ;
#89 = DIRECTION ( 'NONE',  ( -3.491481338843133355E-15, 1.224646799147353207E-16, -1.000000000000000000 ) ) ;
#90 = AXIS2_PLACEMENT_3D ( 'NONE', #154, #155, #49 ) ;
#91 =( NAMED_UNIT ( * ) PLANE_ANGLE_UNIT ( ) SI_UNIT ( $, .RADIAN. ) );
#92 = ORIENTED_EDGE ( 'NONE', *, *, #100, .F. ) ;
#93 = ORIENTED_EDGE ( 'NONE', *, *, #116, .F. ) ;
#94 = APPROVAL_ROLE ( '' ) ;
#95 = PERSON_AND_ORGANIZATION ( #110, #189 ) ;
#96 = ORIENTED_EDGE ( 'NONE', *, *, #13, .F. ) ;
#97 = PERSON_AND_ORGANIZATION_ROLE ( 'design_supplier' ) ;
#98 = ADVANCED_FACE ( 'NONE', ( #1, #129 ), #32, .T. ) ;
#99 = APPROVAL_DATE_TIME ( #109, #145 ) ;
#100 = EDGE_CURVE ( 'NONE', #48, #48, #40, .T. ) ;
#101 = AXIS2_PLACEMENT_3D ( 'NONE', #15, #89, #50 ) ;
#102 = CARTESIAN_POINT ( 'NONE',  ( 1.319779946082704535E-13, -4.629164900776995227E-15, 37.79999999999999716 ) ) ;
#103 = ADVANCED_BREP_SHAPE_REPRESENTATION ( '55635', ( #56, #51, #53 ), #148 ) ;
#104 = DIRECTION ( 'NONE',  ( -3.491481338843133355E-15, 1.224646799147353207E-16, -1.000000000000000000 ) ) ;
#105 = EDGE_LOOP ( 'NONE', ( #93 ) ) ;
#106 = APPROVAL_ROLE ( '' ) ;
#107 = MECHANICAL_CONTEXT ( 'NONE', #127, 'mechanical' ) ;
#108 = APPROVAL_DATE_TIME ( #199, #114 ) ;
#109 = DATE_AND_TIME ( #158, #25 ) ;
#110 = PERSON ( 'UNSPECIFIED', 'UNSPECIFIED', 'UNSPECIFIED', ('UNSPECIFIED'), ('UNSPECIFIED'), ('UNSPECIFIED') ) ;
#111 = DIRECTION ( 'NONE',  ( -3.491481338843133355E-15, 1.224646799147353207E-16, -1.000000000000000000 ) ) ;
#112 = AXIS2_PLACEMENT_3D ( 'NONE', #102, #104, #191 ) ;
#113 = FACE_OUTER_BOUND ( 'NONE', #57, .T. ) ;
#114 = APPROVAL ( #135, 'UNSPECIFIED' ) ;
#115 = PERSON_AND_ORGANIZATION ( #110, #189 ) ;
#116 = EDGE_CURVE ( 'NONE', #193, #193, #171, .T. ) ;
#117 = ORIENTED_EDGE ( 'NONE', *, *, #123, .F. ) ;
#118 = COORDINATED_UNIVERSAL_TIME_OFFSET ( 1, 0, .AHEAD. ) ;
#119 = CARTESIAN_POINT ( 'NONE',  ( 0.0000000000000000000, 0.0000000000000000000, 0.0000000000000000000 ) ) ;
#120 = DATE_TIME_ROLE ( 'classification_date' ) ;
#121 = CIRCLE ( 'NONE', #20, 0.8999999999999953593 ) ;
#122 = PRODUCT_RELATED_PRODUCT_CATEGORY ( 'detail', '', ( #178 ) ) ;
#123 = EDGE_CURVE ( 'NONE', #16, #16, #121, .T. ) ;
#124 = AXIS2_PLACEMENT_3D ( 'NONE', #60, #151, #157 ) ;
#125 = ADVANCED_FACE ( 'NONE', ( #68 ), #38, .F. ) ;
#126 =( LENGTH_UNIT ( ) NAMED_UNIT ( * ) SI_UNIT ( .MILLI., .METRE. ) );
#127 = APPLICATION_CONTEXT ( 'configuration controlled 3d designs of mechanical parts and assemblies' ) ;
#128 = ADVANCED_FACE ( 'NONE', ( #17, #3 ), #203, .T. ) ;
#129 = FACE_OUTER_BOUND ( 'NONE', #156, .T. ) ;
#130 = CARTESIAN_POINT ( 'NONE',  ( 1.326762908760390423E-13, -4.653657836759941941E-15, 38.00000000000000000 ) ) ;
#131 = CONICAL_SURFACE ( 'NONE', #44, 0.8999999999999953593, 1.134464013796309123 ) ;
#132 = APPROVAL_PERSON_ORGANIZATION ( #115, #142, #106 ) ;
#133 = APPLICATION_PROTOCOL_DEFINITION ( 'international standard', 'config_control_design', 1994, #127 ) ;
#134 = EDGE_LOOP ( 'NONE', ( #75 ) ) ;
#135 = APPROVAL_STATUS ( 'not_yet_approved' ) ;
#136 = CALENDAR_DATE ( 2021, 6, 10 ) ;
#137 = COORDINATED_UNIVERSAL_TIME_OFFSET ( 1, 0, .AHEAD. ) ;
#138 = LOCAL_TIME ( 13, 20, 9.000000000000000000, #7 ) ;
#139 = CC_DESIGN_PERSON_AND_ORGANIZATION_ASSIGNMENT ( #195, #43, ( #187 ) ) ;
#140 = SECURITY_CLASSIFICATION ( '', '', #9 ) ;
#141 = DIRECTION ( 'NONE',  ( 4.275831445896958607E-31, 1.000000000000000000, 1.224646799147353207E-16 ) ) ;
#142 = APPROVAL ( #39, 'UNSPECIFIED' ) ;
#143 = CARTESIAN_POINT ( 'NONE',  ( 0.0000000000000000000, 0.0000000000000000000, 0.0000000000000000000 ) ) ;
#144 =( NAMED_UNIT ( * ) SI_UNIT ( $, .STERADIAN. ) SOLID_ANGLE_UNIT ( ) );
#145 = APPROVAL ( #5, 'UNSPECIFIED' ) ;
#146 = EDGE_LOOP ( 'NONE', ( #96 ) ) ;
#147 = COORDINATED_UNIVERSAL_TIME_OFFSET ( 1, 0, .AHEAD. ) ;
#148 =( GEOMETRIC_REPRESENTATION_CONTEXT ( 3 ) GLOBAL_UNCERTAINTY_ASSIGNED_CONTEXT ( ( #74 ) ) GLOBAL_UNIT_ASSIGNED_CONTEXT ( ( #126, #91, #144 ) ) REPRESENTATION_CONTEXT ( 'NONE', 'WORKASPACE' ) );
#149 = APPROVAL_ROLE ( '' ) ;
#150 = EDGE_CURVE ( 'NONE', #14, #14, #180, .T. ) ;
#151 = DIRECTION ( 'NONE',  ( -3.491481338843133355E-15, 1.224646799147353207E-16, -1.000000000000000000 ) ) ;
#152 = LOCAL_TIME ( 13, 20, 9.000000000000000000, #188 ) ;
#153 = PRODUCT_DEFINITION_SHAPE ( 'NONE', 'NONE',  #187 ) ;
#154 = CARTESIAN_POINT ( 'NONE',  ( 1.326762908760390423E-13, 5.249159239316431836E-33, 38.00000000000000000 ) ) ;
#155 = DIRECTION ( 'NONE',  ( -3.491481338843133355E-15, 1.224646799147353207E-16, -1.000000000000000000 ) ) ;
#156 = EDGE_LOOP ( 'NONE', ( #159 ) ) ;
#157 = DIRECTION ( 'NONE',  ( 0.0000000000000000000, 1.000000000000000000, 0.0000000000000000000 ) ) ;
#158 = CALENDAR_DATE ( 2021, 6, 10 ) ;
#159 = ORIENTED_EDGE ( 'NONE', *, *, #116, .T. ) ;
#160 = DIRECTION ( 'NONE',  ( 1.000000000000000000, 0.0000000000000000000, 0.0000000000000000000 ) ) ;
#161 = ADVANCED_FACE ( 'NONE', ( #113 ), #87, .F. ) ;
#162 = PERSON_AND_ORGANIZATION ( #110, #189 ) ;
#163 = CC_DESIGN_PERSON_AND_ORGANIZATION_ASSIGNMENT ( #28, #97, ( #27 ) ) ;
#164 = EDGE_LOOP ( 'NONE', ( #117 ) ) ;
#165 = CC_DESIGN_APPROVAL ( #145, ( #187 ) ) ;
#166 = PERSON_AND_ORGANIZATION ( #110, #189 ) ;
#167 = DIRECTION ( 'NONE',  ( -3.491481338843133355E-15, 1.224646799147353207E-16, -1.000000000000000000 ) ) ;
#168 = DIRECTION ( 'NONE',  ( 3.491481338843133355E-15, -1.224646799147353207E-16, 1.000000000000000000 ) ) ;
#169 = PERSON_AND_ORGANIZATION_ROLE ( 'creator' ) ;
#170 = CC_DESIGN_DATE_AND_TIME_ASSIGNMENT ( #58, #24, ( #187 ) ) ;
#171 = CIRCLE ( 'NONE', #186, 0.8999999999999972466 ) ;
#172 = DIRECTION ( 'NONE',  ( 4.275831445896958607E-31, 1.000000000000000000, 1.224646799147353454E-16 ) ) ;
#173 = CARTESIAN_POINT ( 'NONE',  ( 5.586370142149013368E-14, -1.959434878635765131E-15, 16.00000000000000000 ) ) ;
#174 = CARTESIAN_POINT ( 'NONE',  ( 1.465294037947050685E-15, 0.8999999999999953593, 0.4196768923395022277 ) ) ;
#175 = APPROVAL_PERSON_ORGANIZATION ( #95, #114, #149 ) ;
#176 = SHAPE_DEFINITION_REPRESENTATION ( #153, #103 ) ;
#177 = CARTESIAN_POINT ( 'NONE',  ( 1.465294037947050290E-15, -5.139559628796796023E-17, 0.4196768923395021167 ) ) ;
#178 = PRODUCT ( '55635', '55635', '', ( #107 ) ) ;
#179 = DIRECTION ( 'NONE',  ( -4.279844320860545916E-31, -1.000000000000000000, -1.204669080539455507E-16 ) ) ;
#180 = CIRCLE ( 'NONE', #101, 0.8999999999999972466 ) ;
#181 = EDGE_LOOP ( 'NONE', ( #26 ) ) ;
#182 = EDGE_LOOP ( 'NONE', ( #92 ) ) ;
#183 = PERSON_AND_ORGANIZATION ( #110, #189 ) ;
#184 = APPLICATION_CONTEXT ( 'configuration controlled 3d designs of mechanical parts and assemblies' ) ;
#185 = CARTESIAN_POINT ( 'NONE',  ( 5.586370142149013368E-14, 6.748919021978309971E-33, 16.00000000000000000 ) ) ;
#186 = AXIS2_PLACEMENT_3D ( 'NONE', #173, #88, #69 ) ;
#187 = PRODUCT_DEFINITION ( 'UNKNOWN', '', #27, #22 ) ;
#188 = COORDINATED_UNIVERSAL_TIME_OFFSET ( 1, 0, .AHEAD. ) ;
#189 = ORGANIZATION ( 'UNSPECIFIED', 'UNSPECIFIED', '' ) ;
#190 = CC_DESIGN_APPROVAL ( #114, ( #27 ) ) ;
#191 = DIRECTION ( 'NONE',  ( 0.0000000000000000000, 1.000000000000000000, 0.0000000000000000000 ) ) ;
#192 = DIRECTION ( 'NONE',  ( 0.0000000000000000000, 1.000000000000000000, 0.0000000000000000000 ) ) ;
#193 = VERTEX_POINT ( 'NONE', #19 ) ;
#194 = DIRECTION ( 'NONE',  ( 3.491481338843133355E-15, -1.224646799147353207E-16, 1.000000000000000000 ) ) ;
#195 = PERSON_AND_ORGANIZATION ( #110, #189 ) ;
#196 = ORIENTED_EDGE ( 'NONE', *, *, #123, .T. ) ;
#197 = AXIS2_PLACEMENT_3D ( 'NONE', #143, #86, #141 ) ;
#198 = CC_DESIGN_PERSON_AND_ORGANIZATION_ASSIGNMENT ( #166, #169, ( #27 ) ) ;
#199 = DATE_AND_TIME ( #136, #138 ) ;
#200 = CALENDAR_DATE ( 2021, 6, 10 ) ;
#201 = LOCAL_TIME ( 13, 20, 9.000000000000000000, #137 ) ;
#202 = DIRECTION ( 'NONE',  ( -4.275831445896958607E-31, -1.000000000000000000, -1.224646799147353207E-16 ) ) ;
#203 = CONICAL_SURFACE ( 'NONE', #67, 0.6999999999999999556, 0.7853981633974512766 ) ;
ENDSEC;
END-ISO-10303-21;
