ISO-10303-21;
HEADER;
FILE_DESCRIPTION (( 'STEP AP203' ),
    '1' );
FILE_NAME ('55633.step',
    '2021-10-06T11:20:07',
    ( '' ),
    ( '' ),
    'SwSTEP 2.0',
    'SolidWorks 2019',
    '' );
FILE_SCHEMA (( 'CONFIG_CONTROL_DESIGN' ));
ENDSEC;

DATA;
#1 = ORIENTED_EDGE ( 'NONE', *, *, #106, .F. ) ;
#2 = AXIS2_PLACEMENT_3D ( 'NONE', #99, #194, #161 ) ;
#3 = DIRECTION ( 'NONE',  ( 0.0000000000000000000, 1.000000000000000000, 0.0000000000000000000 ) ) ;
#4 = PRODUCT_DEFINITION_SHAPE ( 'NONE', 'NONE',  #112 ) ;
#5 = DIRECTION ( 'NONE',  ( 0.0000000000000000000, 1.000000000000000000, 0.0000000000000000000 ) ) ;
#6 = PLANE ( 'NONE',  #49 ) ;
#7 = PERSON_AND_ORGANIZATION ( #41, #63 ) ;
#8 = CC_DESIGN_SECURITY_CLASSIFICATION ( #166, ( #189 ) ) ;
#9 = COORDINATED_UNIVERSAL_TIME_OFFSET ( 1, 0, .AHEAD. ) ;
#10 = DATE_TIME_ROLE ( 'creation_date' ) ;
#11 = FACE_BOUND ( 'NONE', #95, .T. ) ;
#12 = FACE_OUTER_BOUND ( 'NONE', #17, .T. ) ;
#13 = ADVANCED_FACE ( 'NONE', ( #20 ), #167, .T. ) ;
#14 = ORIENTED_EDGE ( 'NONE', *, *, #74, .T. ) ;
#15 = APPROVAL ( #22, 'UNSPECIFIED' ) ;
#16 = AXIS2_PLACEMENT_3D ( 'NONE', #84, #53, #21 ) ;
#17 = EDGE_LOOP ( 'NONE', ( #14 ) ) ;
#18 = UNCERTAINTY_MEASURE_WITH_UNIT (LENGTH_MEASURE( 1.000000000000000082E-05 ), #39, 'distance_accuracy_value', 'NONE');
#19 = CYLINDRICAL_SURFACE ( 'NONE', #43, 0.8749999999999963363 ) ;
#20 = FACE_OUTER_BOUND ( 'NONE', #80, .T. ) ;
#21 = DIRECTION ( 'NONE',  ( -4.402125587170848579E-31, -1.000000000000000000, -1.239088197126297473E-16 ) ) ;
#22 = APPROVAL_STATUS ( 'not_yet_approved' ) ;
#23 = CC_DESIGN_APPROVAL ( #15, ( #112 ) ) ;
#24 = MECHANICAL_CONTEXT ( 'NONE', #172, 'mechanical' ) ;
#25 = EDGE_CURVE ( 'NONE', #108, #108, #67, .T. ) ;
#26 = PERSON_AND_ORGANIZATION_ROLE ( 'classification_officer' ) ;
#27 = DIRECTION ( 'NONE',  ( -3.491481338843133355E-15, 1.224646799147353207E-16, -1.000000000000000000 ) ) ;
#28 = CC_DESIGN_PERSON_AND_ORGANIZATION_ASSIGNMENT ( #178, #129, ( #51 ) ) ;
#29 = VERTEX_POINT ( 'NONE', #151 ) ;
#30 = ORIENTED_EDGE ( 'NONE', *, *, #47, .F. ) ;
#31 = ORIENTED_EDGE ( 'NONE', *, *, #46, .T. ) ;
#32 = ORIENTED_EDGE ( 'NONE', *, *, #25, .F. ) ;
#33 = ADVANCED_FACE ( 'NONE', ( #52, #142 ), #19, .T. ) ;
#34 = EDGE_LOOP ( 'NONE', ( #32 ) ) ;
#35 = DIRECTION ( 'NONE',  ( -3.491481338843133355E-15, 1.224646799147353207E-16, -1.000000000000000000 ) ) ;
#36 = CALENDAR_DATE ( 2021, 6, 10 ) ;
#37 = DIRECTION ( 'NONE',  ( -4.275831445896958607E-31, -1.000000000000000000, -1.224646799147353207E-16 ) ) ;
#38 = PERSON_AND_ORGANIZATION_ROLE ( 'creator' ) ;
#39 =( LENGTH_UNIT ( ) NAMED_UNIT ( * ) SI_UNIT ( .MILLI., .METRE. ) );
#40 = PLANE ( 'NONE',  #79 ) ;
#41 = PERSON ( 'UNSPECIFIED', 'UNSPECIFIED', 'UNSPECIFIED', ('UNSPECIFIED'), ('UNSPECIFIED'), ('UNSPECIFIED') ) ;
#42 = CARTESIAN_POINT ( 'NONE',  ( 5.586370142149013368E-14, 6.561449049145577770E-33, 16.00000000000000000 ) ) ;
#43 = AXIS2_PLACEMENT_3D ( 'NONE', #177, #159, #70 ) ;
#44 = CARTESIAN_POINT ( 'NONE',  ( 1.424591425781854520E-15, 0.8749999999999953371, 0.4080192008856270425 ) ) ;
#45 = CARTESIAN_POINT ( 'NONE',  ( 5.586370142149013368E-14, -1.959434878635765131E-15, 16.00000000000000000 ) ) ;
#46 = EDGE_CURVE ( 'NONE', #62, #62, #130, .T. ) ;
#47 = EDGE_CURVE ( 'NONE', #152, #152, #94, .T. ) ;
#48 = AXIS2_PLACEMENT_3D ( 'NONE', #114, #144, #5 ) ;
#49 = AXIS2_PLACEMENT_3D ( 'NONE', #113, #72, #128 ) ;
#50 = ORIENTED_EDGE ( 'NONE', *, *, #47, .T. ) ;
#51 = PRODUCT ( '55633', '55633', '', ( #24 ) ) ;
#52 = FACE_OUTER_BOUND ( 'NONE', #97, .T. ) ;
#53 = DIRECTION ( 'NONE',  ( 3.491481338843133355E-15, -1.224646799147353207E-16, 1.000000000000000000 ) ) ;
#54 = APPROVAL_PERSON_ORGANIZATION ( #73, #141, #115 ) ;
#55 = PERSON_AND_ORGANIZATION ( #41, #63 ) ;
#56 = ADVANCED_FACE ( 'NONE', ( #145 ), #6, .F. ) ;
#57 = APPROVAL_STATUS ( 'not_yet_approved' ) ;
#58 = CALENDAR_DATE ( 2021, 6, 10 ) ;
#59 = AXIS2_PLACEMENT_3D ( 'NONE', #181, #147, #105 ) ;
#60 = CARTESIAN_POINT ( 'NONE',  ( 0.0000000000000000000, 0.0000000000000000000, 0.0000000000000000000 ) ) ;
#61 = LOCAL_TIME ( 13, 20, 7.000000000000000000, #71 ) ;
#62 = VERTEX_POINT ( 'NONE', #44 ) ;
#63 = ORGANIZATION ( 'UNSPECIFIED', 'UNSPECIFIED', '' ) ;
#64 = DIRECTION ( 'NONE',  ( 3.491481338843133355E-15, -1.224646799147353207E-16, 1.000000000000000000 ) ) ;
#65 = CC_DESIGN_APPROVAL ( #138, ( #189 ) ) ;
#66 = EDGE_LOOP ( 'NONE', ( #139 ) ) ;
#67 = CIRCLE ( 'NONE', #48, 0.8750000000000000000 ) ;
#68 = AXIS2_PLACEMENT_3D ( 'NONE', #60, #27, #137 ) ;
#69 = FACE_OUTER_BOUND ( 'NONE', #174, .T. ) ;
#70 = DIRECTION ( 'NONE',  ( 4.275831445896958607E-31, 1.000000000000000000, 1.224646799147353207E-16 ) ) ;
#71 = COORDINATED_UNIVERSAL_TIME_OFFSET ( 1, 0, .AHEAD. ) ;
#72 = DIRECTION ( 'NONE',  ( -3.491481338843133355E-15, 1.224646799147353207E-16, -1.000000000000000000 ) ) ;
#73 = PERSON_AND_ORGANIZATION ( #41, #63 ) ;
#74 = EDGE_CURVE ( 'NONE', #29, #29, #103, .T. ) ;
#75 = COORDINATED_UNIVERSAL_TIME_OFFSET ( 1, 0, .AHEAD. ) ;
#76 = APPROVAL_ROLE ( '' ) ;
#77 = DIRECTION ( 'NONE',  ( -3.491481338843133355E-15, 1.224646799147353207E-16, -1.000000000000000000 ) ) ;
#78 = LOCAL_TIME ( 13, 20, 7.000000000000000000, #75 ) ;
#79 = AXIS2_PLACEMENT_3D ( 'NONE', #42, #64, #91 ) ;
#80 = EDGE_LOOP ( 'NONE', ( #31 ) ) ;
#81 = LOCAL_TIME ( 13, 20, 7.000000000000000000, #131 ) ;
#82 = CARTESIAN_POINT ( 'NONE',  ( 1.424591425781854126E-15, -4.996794083552439072E-17, 0.4080192008856269315 ) ) ;
#83 = ADVANCED_FACE ( 'NONE', ( #69 ), #125, .T. ) ;
#84 = CARTESIAN_POINT ( 'NONE',  ( 1.424591425781854126E-15, -4.996794083552439072E-17, 0.4080192008856269315 ) ) ;
#85 = APPROVAL_DATE_TIME ( #195, #15 ) ;
#86 = COORDINATED_UNIVERSAL_TIME_OFFSET ( 1, 0, .AHEAD. ) ;
#87 = ADVANCED_FACE ( 'NONE', ( #163, #104 ), #136, .T. ) ;
#88 = AXIS2_PLACEMENT_3D ( 'NONE', #45, #121, #93 ) ;
#89 = PERSON_AND_ORGANIZATION_ROLE ( 'creator' ) ;
#90 = CALENDAR_DATE ( 2021, 6, 10 ) ;
#91 = DIRECTION ( 'NONE',  ( -4.275831445896958607E-31, -1.000000000000000000, -1.224646799147353207E-16 ) ) ;
#92 = CC_DESIGN_PERSON_AND_ORGANIZATION_ASSIGNMENT ( #7, #89, ( #112 ) ) ;
#93 = DIRECTION ( 'NONE',  ( 0.0000000000000000000, 1.000000000000000000, 0.0000000000000000000 ) ) ;
#94 = CIRCLE ( 'NONE', #2, 0.6750000000000000444 ) ;
#95 = EDGE_LOOP ( 'NONE', ( #50 ) ) ;
#96 = MANIFOLD_SOLID_BREP ( 'Corps-Déplacer/Copier1[1]', #171 ) ;
#97 = EDGE_LOOP ( 'NONE', ( #111 ) ) ;
#98 = DIRECTION ( 'NONE',  ( 3.491481338843133355E-15, -1.224646799147353207E-16, 1.000000000000000000 ) ) ;
#99 = CARTESIAN_POINT ( 'NONE',  ( 1.326762908760390423E-13, -4.653657836759941941E-15, 38.00000000000000000 ) ) ;
#100 = DATE_AND_TIME ( #36, #81 ) ;
#101 = CC_DESIGN_APPROVAL ( #141, ( #166 ) ) ;
#102 = DATE_AND_TIME ( #90, #155 ) ;
#103 = CIRCLE ( 'NONE', #143, 0.8749999999999973355 ) ;
#104 = FACE_OUTER_BOUND ( 'NONE', #191, .T. ) ;
#105 = DIRECTION ( 'NONE',  ( 1.000000000000000000, 0.0000000000000000000, 0.0000000000000000000 ) ) ;
#106 = EDGE_CURVE ( 'NONE', #107, #107, #153, .T. ) ;
#107 = VERTEX_POINT ( 'NONE', #170 ) ;
#108 = VERTEX_POINT ( 'NONE', #184 ) ;
#109 = PRODUCT_RELATED_PRODUCT_CATEGORY ( 'detail', '', ( #51 ) ) ;
#110 = CARTESIAN_POINT ( 'NONE',  ( 1.326762908760390423E-13, 0.6749999999999953815, 38.00000000000000000 ) ) ;
#111 = ORIENTED_EDGE ( 'NONE', *, *, #46, .F. ) ;
#112 = PRODUCT_DEFINITION ( 'UNKNOWN', '', #189, #176 ) ;
#113 = CARTESIAN_POINT ( 'NONE',  ( 1.326762908760390423E-13, 5.061689266483700319E-33, 38.00000000000000000 ) ) ;
#114 = CARTESIAN_POINT ( 'NONE',  ( 1.319779946082704535E-13, -4.629164900776995227E-15, 37.79999999999999716 ) ) ;
#115 = APPROVAL_ROLE ( '' ) ;
#116 = SECURITY_CLASSIFICATION_LEVEL ( 'unclassified' ) ;
#117 = APPROVAL_DATE_TIME ( #100, #141 ) ;
#118 = PERSON_AND_ORGANIZATION ( #41, #63 ) ;
#119 = PERSON_AND_ORGANIZATION ( #41, #63 ) ;
#120 = CARTESIAN_POINT ( 'NONE',  ( 1.326762908760390423E-13, -4.653657836759941941E-15, 38.00000000000000000 ) ) ;
#121 = DIRECTION ( 'NONE',  ( -3.491481338843133355E-15, 1.224646799147353207E-16, -1.000000000000000000 ) ) ;
#122 = ORIENTED_EDGE ( 'NONE', *, *, #74, .F. ) ;
#123 = CC_DESIGN_DATE_AND_TIME_ASSIGNMENT ( #102, #150, ( #166 ) ) ;
#124 =( GEOMETRIC_REPRESENTATION_CONTEXT ( 3 ) GLOBAL_UNCERTAINTY_ASSIGNED_CONTEXT ( ( #18 ) ) GLOBAL_UNIT_ASSIGNED_CONTEXT ( ( #39, #134, #201 ) ) REPRESENTATION_CONTEXT ( 'NONE', 'WORKASPACE' ) );
#125 = PLANE ( 'NONE',  #168 ) ;
#126 = DIRECTION ( 'NONE',  ( 4.402125587170848579E-31, 1.000000000000000000, 1.239088197126297473E-16 ) ) ;
#127 = APPROVAL_STATUS ( 'not_yet_approved' ) ;
#128 = DIRECTION ( 'NONE',  ( 4.275831445896958607E-31, 1.000000000000000000, 1.224646799147353207E-16 ) ) ;
#129 = PERSON_AND_ORGANIZATION_ROLE ( 'design_owner' ) ;
#130 = CIRCLE ( 'NONE', #148, 0.8749999999999953371 ) ;
#131 = COORDINATED_UNIVERSAL_TIME_OFFSET ( 1, 0, .AHEAD. ) ;
#132 = APPLICATION_PROTOCOL_DEFINITION ( 'international standard', 'config_control_design', 1994, #172 ) ;
#133 = CALENDAR_DATE ( 2021, 6, 10 ) ;
#134 =( NAMED_UNIT ( * ) PLANE_ANGLE_UNIT ( ) SI_UNIT ( $, .RADIAN. ) );
#135 = CLOSED_SHELL ( 'NONE', ( #13, #33, #83 ) ) ;
#136 = CYLINDRICAL_SURFACE ( 'NONE', #68, 0.8749999999999985567 ) ;
#137 = DIRECTION ( 'NONE',  ( 4.275831445896958607E-31, 1.000000000000000000, 1.224646799147353454E-16 ) ) ;
#138 = APPROVAL ( #57, 'UNSPECIFIED' ) ;
#139 = ORIENTED_EDGE ( 'NONE', *, *, #106, .T. ) ;
#140 = ADVANCED_BREP_SHAPE_REPRESENTATION ( '55633', ( #96, #165, #59 ), #124 ) ;
#141 = APPROVAL ( #127, 'UNSPECIFIED' ) ;
#142 = FACE_OUTER_BOUND ( 'NONE', #66, .T. ) ;
#143 = AXIS2_PLACEMENT_3D ( 'NONE', #196, #35, #3 ) ;
#144 = DIRECTION ( 'NONE',  ( -3.491481338843133355E-15, 1.224646799147353207E-16, -1.000000000000000000 ) ) ;
#145 = FACE_OUTER_BOUND ( 'NONE', #154, .T. ) ;
#146 = APPLICATION_PROTOCOL_DEFINITION ( 'international standard', 'config_control_design', 1994, #185 ) ;
#147 = DIRECTION ( 'NONE',  ( 0.0000000000000000000, 0.0000000000000000000, 1.000000000000000000 ) ) ;
#148 = AXIS2_PLACEMENT_3D ( 'NONE', #82, #175, #126 ) ;
#149 = PERSON_AND_ORGANIZATION ( #41, #63 ) ;
#150 = DATE_TIME_ROLE ( 'classification_date' ) ;
#151 = CARTESIAN_POINT ( 'NONE',  ( 5.586370142149013368E-14, 0.8749999999999953371, 16.00000000000000000 ) ) ;
#152 = VERTEX_POINT ( 'NONE', #110 ) ;
#153 = CIRCLE ( 'NONE', #88, 0.8749999999999973355 ) ;
#154 = EDGE_LOOP ( 'NONE', ( #30 ) ) ;
#155 = LOCAL_TIME ( 13, 20, 7.000000000000000000, #86 ) ;
#156 = ADVANCED_FACE ( 'NONE', ( #12 ), #40, .F. ) ;
#157 = EDGE_LOOP ( 'NONE', ( #122 ) ) ;
#158 = APPROVAL_PERSON_ORGANIZATION ( #149, #138, #76 ) ;
#159 = DIRECTION ( 'NONE',  ( -3.491481338843133355E-15, 1.224646799147353207E-16, -1.000000000000000000 ) ) ;
#160 = CC_DESIGN_PERSON_AND_ORGANIZATION_ASSIGNMENT ( #55, #26, ( #166 ) ) ;
#161 = DIRECTION ( 'NONE',  ( 0.0000000000000000000, 1.000000000000000000, 0.0000000000000000000 ) ) ;
#162 = SHAPE_DEFINITION_REPRESENTATION ( #4, #140 ) ;
#163 = FACE_OUTER_BOUND ( 'NONE', #157, .T. ) ;
#164 = DATE_AND_TIME ( #58, #78 ) ;
#165 = MANIFOLD_SOLID_BREP ( 'Corps-Déplacer/Copier1[2]', #135 ) ;
#166 = SECURITY_CLASSIFICATION ( '', '', #116 ) ;
#167 = CONICAL_SURFACE ( 'NONE', #16, 0.8749999999999953371, 1.134464013796309123 ) ;
#168 = AXIS2_PLACEMENT_3D ( 'NONE', #192, #98, #37 ) ;
#169 = PERSON_AND_ORGANIZATION_ROLE ( 'design_supplier' ) ;
#170 = CARTESIAN_POINT ( 'NONE',  ( 5.586370142149013368E-14, 0.8749999999999953371, 16.00000000000000000 ) ) ;
#171 = CLOSED_SHELL ( 'NONE', ( #156, #87, #198, #56 ) ) ;
#172 = APPLICATION_CONTEXT ( 'configuration controlled 3d designs of mechanical parts and assemblies' ) ;
#173 = APPROVAL_PERSON_ORGANIZATION ( #119, #15, #179 ) ;
#174 = EDGE_LOOP ( 'NONE', ( #1 ) ) ;
#175 = DIRECTION ( 'NONE',  ( -3.491481338843133355E-15, 1.224646799147353207E-16, -1.000000000000000000 ) ) ;
#176 = DESIGN_CONTEXT ( 'detailed design', #185, 'design' ) ;
#177 = CARTESIAN_POINT ( 'NONE',  ( 0.0000000000000000000, 0.0000000000000000000, 0.0000000000000000000 ) ) ;
#178 = PERSON_AND_ORGANIZATION ( #41, #63 ) ;
#179 = APPROVAL_ROLE ( '' ) ;
#180 = CC_DESIGN_PERSON_AND_ORGANIZATION_ASSIGNMENT ( #197, #169, ( #189 ) ) ;
#181 = CARTESIAN_POINT ( 'NONE',  ( 0.0000000000000000000, 0.0000000000000000000, 0.0000000000000000000 ) ) ;
#182 = CONICAL_SURFACE ( 'NONE', #190, 0.6750000000000000444, 0.7853981633974512766 ) ;
#183 = DATE_AND_TIME ( #133, #61 ) ;
#184 = CARTESIAN_POINT ( 'NONE',  ( 1.319779946082704535E-13, 0.8749999999999953371, 37.79999999999999716 ) ) ;
#185 = APPLICATION_CONTEXT ( 'configuration controlled 3d designs of mechanical parts and assemblies' ) ;
#186 = FACE_OUTER_BOUND ( 'NONE', #34, .T. ) ;
#187 = CC_DESIGN_DATE_AND_TIME_ASSIGNMENT ( #164, #10, ( #112 ) ) ;
#188 = ORIENTED_EDGE ( 'NONE', *, *, #25, .T. ) ;
#189 = PRODUCT_DEFINITION_FORMATION_WITH_SPECIFIED_SOURCE ( 'ANY', '', #51, .NOT_KNOWN. ) ;
#190 = AXIS2_PLACEMENT_3D ( 'NONE', #120, #77, #202 ) ;
#191 = EDGE_LOOP ( 'NONE', ( #188 ) ) ;
#192 = CARTESIAN_POINT ( 'NONE',  ( 5.586370142149013368E-14, 6.561449049145577770E-33, 16.00000000000000000 ) ) ;
#193 = CC_DESIGN_PERSON_AND_ORGANIZATION_ASSIGNMENT ( #118, #38, ( #189 ) ) ;
#194 = DIRECTION ( 'NONE',  ( -3.491481338843133355E-15, 1.224646799147353207E-16, -1.000000000000000000 ) ) ;
#195 = DATE_AND_TIME ( #200, #203 ) ;
#196 = CARTESIAN_POINT ( 'NONE',  ( 5.586370142149013368E-14, -1.959434878635765131E-15, 16.00000000000000000 ) ) ;
#197 = PERSON_AND_ORGANIZATION ( #41, #63 ) ;
#198 = ADVANCED_FACE ( 'NONE', ( #186, #11 ), #182, .T. ) ;
#199 = APPROVAL_DATE_TIME ( #183, #138 ) ;
#200 = CALENDAR_DATE ( 2021, 6, 10 ) ;
#201 =( NAMED_UNIT ( * ) SI_UNIT ( $, .STERADIAN. ) SOLID_ANGLE_UNIT ( ) );
#202 = DIRECTION ( 'NONE',  ( 0.0000000000000000000, 1.000000000000000000, 0.0000000000000000000 ) ) ;
#203 = LOCAL_TIME ( 13, 20, 7.000000000000000000, #9 ) ;
ENDSEC;
END-ISO-10303-21;
