ISO-10303-21;
HEADER;
FILE_DESCRIPTION (( 'STEP AP203' ),
    '1' );
FILE_NAME ('55631.step',
    '2021-10-06T11:20:06',
    ( '' ),
    ( '' ),
    'SwSTEP 2.0',
    'SolidWorks 2019',
    '' );
FILE_SCHEMA (( 'CONFIG_CONTROL_DESIGN' ));
ENDSEC;

DATA;
#1 = DIRECTION ( 'NONE',  ( -3.491481338843133355E-15, 1.224646799147353207E-16, -1.000000000000000000 ) ) ;
#2 = FACE_OUTER_BOUND ( 'NONE', #171, .T. ) ;
#3 = DIRECTION ( 'NONE',  ( 0.0000000000000000000, 1.000000000000000000, 0.0000000000000000000 ) ) ;
#4 = LOCAL_TIME ( 13, 20, 6.000000000000000000, #181 ) ;
#5 = APPROVAL_STATUS ( 'not_yet_approved' ) ;
#6 = EDGE_LOOP ( 'NONE', ( #189 ) ) ;
#7 = EDGE_CURVE ( 'NONE', #27, #27, #66, .T. ) ;
#8 = DIRECTION ( 'NONE',  ( 0.0000000000000000000, 0.0000000000000000000, 1.000000000000000000 ) ) ;
#9 = MECHANICAL_CONTEXT ( 'NONE', #16, 'mechanical' ) ;
#10 = CYLINDRICAL_SURFACE ( 'NONE', #56, 0.8499999999999985345 ) ;
#11 = FACE_BOUND ( 'NONE', #74, .T. ) ;
#12 = CC_DESIGN_DATE_AND_TIME_ASSIGNMENT ( #34, #101, ( #84 ) ) ;
#13 = DIRECTION ( 'NONE',  ( -3.491481338843133355E-15, 1.224646799147353207E-16, -1.000000000000000000 ) ) ;
#14 = CARTESIAN_POINT ( 'NONE',  ( 5.586370142149013368E-14, 6.373979076312845569E-33, 16.00000000000000000 ) ) ;
#15 = CARTESIAN_POINT ( 'NONE',  ( 0.0000000000000000000, 0.0000000000000000000, 0.0000000000000000000 ) ) ;
#16 = APPLICATION_CONTEXT ( 'configuration controlled 3d designs of mechanical parts and assemblies' ) ;
#17 = APPLICATION_PROTOCOL_DEFINITION ( 'international standard', 'config_control_design', 1994, #78 ) ;
#18 = DIRECTION ( 'NONE',  ( 1.000000000000000000, 0.0000000000000000000, 0.0000000000000000000 ) ) ;
#19 = ORIENTED_EDGE ( 'NONE', *, *, #7, .T. ) ;
#20 = ADVANCED_FACE ( 'NONE', ( #117, #175 ), #183, .T. ) ;
#21 = ADVANCED_FACE ( 'NONE', ( #115 ), #146, .T. ) ;
#22 = AXIS2_PLACEMENT_3D ( 'NONE', #156, #83, #48 ) ;
#23 = ORIENTED_EDGE ( 'NONE', *, *, #140, .F. ) ;
#24 = CARTESIAN_POINT ( 'NONE',  ( 1.326762908760390423E-13, -4.653657836759941941E-15, 38.00000000000000000 ) ) ;
#25 = ORIENTED_EDGE ( 'NONE', *, *, #188, .T. ) ;
#26 = CARTESIAN_POINT ( 'NONE',  ( 5.586370142149013368E-14, 0.8499999999999953149, 16.00000000000000000 ) ) ;
#27 = VERTEX_POINT ( 'NONE', #44 ) ;
#28 = AXIS2_PLACEMENT_3D ( 'NONE', #170, #145, #182 ) ;
#29 = FACE_OUTER_BOUND ( 'NONE', #184, .T. ) ;
#30 = LOCAL_TIME ( 13, 20, 6.000000000000000000, #71 ) ;
#31 = DIRECTION ( 'NONE',  ( -3.491481338843133355E-15, 1.224646799147353207E-16, -1.000000000000000000 ) ) ;
#32 = CALENDAR_DATE ( 2021, 6, 10 ) ;
#33 = CC_DESIGN_PERSON_AND_ORGANIZATION_ASSIGNMENT ( #136, #57, ( #167 ) ) ;
#34 = DATE_AND_TIME ( #100, #30 ) ;
#35 = PRODUCT_DEFINITION_SHAPE ( 'NONE', 'NONE',  #84 ) ;
#36 = AXIS2_PLACEMENT_3D ( 'NONE', #14, #202, #94 ) ;
#37 = APPROVAL_PERSON_ORGANIZATION ( #54, #41, #150 ) ;
#38 = APPROVAL_DATE_TIME ( #177, #77 ) ;
#39 = COORDINATED_UNIVERSAL_TIME_OFFSET ( 1, 0, .AHEAD. ) ;
#40 = FACE_OUTER_BOUND ( 'NONE', #49, .T. ) ;
#41 = APPROVAL ( #5, 'UNSPECIFIED' ) ;
#42 = CIRCLE ( 'NONE', #47, 0.8499999999999972022 ) ;
#43 = EDGE_LOOP ( 'NONE', ( #25 ) ) ;
#44 = CARTESIAN_POINT ( 'NONE',  ( 1.319779946082704535E-13, 0.8499999999999953149, 37.79999999999999716 ) ) ;
#45 = FACE_OUTER_BOUND ( 'NONE', #163, .T. ) ;
#46 = CARTESIAN_POINT ( 'NONE',  ( 1.326762908760390423E-13, 4.874219293650967434E-33, 38.00000000000000000 ) ) ;
#47 = AXIS2_PLACEMENT_3D ( 'NONE', #80, #168, #185 ) ;
#48 = DIRECTION ( 'NONE',  ( 4.275831445896958607E-31, 1.000000000000000000, 1.224646799147352961E-16 ) ) ;
#49 = EDGE_LOOP ( 'NONE', ( #144 ) ) ;
#50 = DIRECTION ( 'NONE',  ( 0.0000000000000000000, 1.000000000000000000, 0.0000000000000000000 ) ) ;
#51 = AXIS2_PLACEMENT_3D ( 'NONE', #128, #159, #113 ) ;
#52 = PERSON_AND_ORGANIZATION_ROLE ( 'creator' ) ;
#53 = PERSON_AND_ORGANIZATION ( #107, #75 ) ;
#54 = PERSON_AND_ORGANIZATION ( #107, #75 ) ;
#55 = SECURITY_CLASSIFICATION ( '', '', #192 ) ;
#56 = AXIS2_PLACEMENT_3D ( 'NONE', #15, #149, #65 ) ;
#57 = PERSON_AND_ORGANIZATION_ROLE ( 'creator' ) ;
#58 = SHAPE_DEFINITION_REPRESENTATION ( #35, #116 ) ;
#59 = AXIS2_PLACEMENT_3D ( 'NONE', #46, #1, #172 ) ;
#60 = ADVANCED_FACE ( 'NONE', ( #45 ), #85, .F. ) ;
#61 = VERTEX_POINT ( 'NONE', #26 ) ;
#62 = CARTESIAN_POINT ( 'NONE',  ( 1.319779946082704535E-13, -4.629164900776995227E-15, 37.79999999999999716 ) ) ;
#63 = ORIENTED_EDGE ( 'NONE', *, *, #140, .T. ) ;
#64 = VERTEX_POINT ( 'NONE', #130 ) ;
#65 = DIRECTION ( 'NONE',  ( 4.275831445896958607E-31, 1.000000000000000000, 1.224646799147353454E-16 ) ) ;
#66 = CIRCLE ( 'NONE', #103, 0.8499999999999999778 ) ;
#67 = CC_DESIGN_SECURITY_CLASSIFICATION ( #55, ( #167 ) ) ;
#68 = PLANE ( 'NONE',  #151 ) ;
#69 = EDGE_CURVE ( 'NONE', #158, #158, #155, .T. ) ;
#70 =( NAMED_UNIT ( * ) PLANE_ANGLE_UNIT ( ) SI_UNIT ( $, .RADIAN. ) );
#71 = COORDINATED_UNIVERSAL_TIME_OFFSET ( 1, 0, .AHEAD. ) ;
#72 = APPLICATION_PROTOCOL_DEFINITION ( 'international standard', 'config_control_design', 1994, #16 ) ;
#73 = PERSON_AND_ORGANIZATION ( #107, #75 ) ;
#74 = EDGE_LOOP ( 'NONE', ( #165 ) ) ;
#75 = ORGANIZATION ( 'UNSPECIFIED', 'UNSPECIFIED', '' ) ;
#76 = UNCERTAINTY_MEASURE_WITH_UNIT (LENGTH_MEASURE( 1.000000000000000082E-05 ), #98, 'distance_accuracy_value', 'NONE');
#77 = APPROVAL ( #119, 'UNSPECIFIED' ) ;
#78 = APPLICATION_CONTEXT ( 'configuration controlled 3d designs of mechanical parts and assemblies' ) ;
#79 = CC_DESIGN_APPROVAL ( #93, ( #55 ) ) ;
#80 = CARTESIAN_POINT ( 'NONE',  ( 5.586370142149013368E-14, -1.959434878635765131E-15, 16.00000000000000000 ) ) ;
#81 = DIRECTION ( 'NONE',  ( 3.491481338843133355E-15, -1.224646799147353207E-16, 1.000000000000000000 ) ) ;
#82 = EDGE_LOOP ( 'NONE', ( #23 ) ) ;
#83 = DIRECTION ( 'NONE',  ( -3.491481338843133355E-15, 1.224646799147353207E-16, -1.000000000000000000 ) ) ;
#84 = PRODUCT_DEFINITION ( 'UNKNOWN', '', #167, #106 ) ;
#85 = PLANE ( 'NONE',  #36 ) ;
#86 = LOCAL_TIME ( 13, 20, 6.000000000000000000, #162 ) ;
#87 = ADVANCED_FACE ( 'NONE', ( #99, #11 ), #110, .T. ) ;
#88 = PERSON_AND_ORGANIZATION_ROLE ( 'design_owner' ) ;
#89 = PERSON_AND_ORGANIZATION_ROLE ( 'design_supplier' ) ;
#90 = ADVANCED_FACE ( 'NONE', ( #157, #29 ), #10, .T. ) ;
#91 = CC_DESIGN_APPROVAL ( #41, ( #84 ) ) ;
#92 = CALENDAR_DATE ( 2021, 6, 10 ) ;
#93 = APPROVAL ( #166, 'UNSPECIFIED' ) ;
#94 = DIRECTION ( 'NONE',  ( -4.275831445896958607E-31, -1.000000000000000000, -1.224646799147353207E-16 ) ) ;
#95 = ORIENTED_EDGE ( 'NONE', *, *, #196, .F. ) ;
#96 = CARTESIAN_POINT ( 'NONE',  ( 5.586370142149013368E-14, 0.8499999999999953149, 16.00000000000000000 ) ) ;
#97 = VERTEX_POINT ( 'NONE', #96 ) ;
#98 =( LENGTH_UNIT ( ) NAMED_UNIT ( * ) SI_UNIT ( .MILLI., .METRE. ) );
#99 = FACE_OUTER_BOUND ( 'NONE', #142, .T. ) ;
#100 = CALENDAR_DATE ( 2021, 6, 10 ) ;
#101 = DATE_TIME_ROLE ( 'creation_date' ) ;
#102 = DATE_AND_TIME ( #178, #201 ) ;
#103 = AXIS2_PLACEMENT_3D ( 'NONE', #62, #31, #50 ) ;
#104 = AXIS2_PLACEMENT_3D ( 'NONE', #109, #148, #143 ) ;
#105 = COORDINATED_UNIVERSAL_TIME_OFFSET ( 1, 0, .AHEAD. ) ;
#106 = DESIGN_CONTEXT ( 'detailed design', #78, 'design' ) ;
#107 = PERSON ( 'UNSPECIFIED', 'UNSPECIFIED', 'UNSPECIFIED', ('UNSPECIFIED'), ('UNSPECIFIED'), ('UNSPECIFIED') ) ;
#108 = CC_DESIGN_DATE_AND_TIME_ASSIGNMENT ( #102, #161, ( #55 ) ) ;
#109 = CARTESIAN_POINT ( 'NONE',  ( 5.586370142149013368E-14, -1.959434878635765131E-15, 16.00000000000000000 ) ) ;
#110 = CONICAL_SURFACE ( 'NONE', #141, 0.6500000000000000222, 0.7853981633974512766 ) ;
#111 = CARTESIAN_POINT ( 'NONE',  ( 1.326762908760390423E-13, 0.6499999999999953593, 38.00000000000000000 ) ) ;
#112 = DIRECTION ( 'NONE',  ( 0.0000000000000000000, 1.000000000000000000, 0.0000000000000000000 ) ) ;
#113 = DIRECTION ( 'NONE',  ( -4.531599869146461927E-31, -1.000000000000000000, -1.275531967630012148E-16 ) ) ;
#114 = ADVANCED_FACE ( 'NONE', ( #40 ), #68, .T. ) ;
#115 = FACE_OUTER_BOUND ( 'NONE', #6, .T. ) ;
#116 = ADVANCED_BREP_SHAPE_REPRESENTATION ( '55631', ( #124, #123, #134 ), #198 ) ;
#117 = FACE_OUTER_BOUND ( 'NONE', #129, .T. ) ;
#118 = CC_DESIGN_APPROVAL ( #77, ( #167 ) ) ;
#119 = APPROVAL_STATUS ( 'not_yet_approved' ) ;
#120 = PERSON_AND_ORGANIZATION_ROLE ( 'classification_officer' ) ;
#121 = APPROVAL_DATE_TIME ( #137, #41 ) ;
#122 = CLOSED_SHELL ( 'NONE', ( #60, #90, #87, #191 ) ) ;
#123 = MANIFOLD_SOLID_BREP ( 'Corps-Déplacer/Copier1[2]', #186 ) ;
#124 = MANIFOLD_SOLID_BREP ( 'Corps-Déplacer/Copier1[1]', #122 ) ;
#125 = DIRECTION ( 'NONE',  ( -3.491481338843133355E-15, 1.224646799147353207E-16, -1.000000000000000000 ) ) ;
#126 = CIRCLE ( 'NONE', #28, 0.8499999999999953149 ) ;
#127 = CC_DESIGN_PERSON_AND_ORGANIZATION_ASSIGNMENT ( #190, #52, ( #84 ) ) ;
#128 = CARTESIAN_POINT ( 'NONE',  ( 1.383888813616657961E-15, -4.854028538308082736E-17, 0.3963615094317518017 ) ) ;
#129 = EDGE_LOOP ( 'NONE', ( #95 ) ) ;
#130 = CARTESIAN_POINT ( 'NONE',  ( 1.383888813616658355E-15, 0.8499999999999953149, 0.3963615094317519127 ) ) ;
#131 = ORIENTED_EDGE ( 'NONE', *, *, #7, .F. ) ;
#132 = CC_DESIGN_PERSON_AND_ORGANIZATION_ASSIGNMENT ( #53, #120, ( #55 ) ) ;
#133 = CARTESIAN_POINT ( 'NONE',  ( 5.586370142149013368E-14, 6.373979076312845569E-33, 16.00000000000000000 ) ) ;
#134 = AXIS2_PLACEMENT_3D ( 'NONE', #164, #8, #18 ) ;
#135 = CIRCLE ( 'NONE', #104, 0.8499999999999972022 ) ;
#136 = PERSON_AND_ORGANIZATION ( #107, #75 ) ;
#137 = DATE_AND_TIME ( #32, #86 ) ;
#138 = APPROVAL_PERSON_ORGANIZATION ( #194, #77, #179 ) ;
#139 = APPROVAL_ROLE ( '' ) ;
#140 = EDGE_CURVE ( 'NONE', #61, #61, #42, .T. ) ;
#141 = AXIS2_PLACEMENT_3D ( 'NONE', #24, #125, #3 ) ;
#142 = EDGE_LOOP ( 'NONE', ( #131 ) ) ;
#143 = DIRECTION ( 'NONE',  ( 0.0000000000000000000, 1.000000000000000000, 0.0000000000000000000 ) ) ;
#144 = ORIENTED_EDGE ( 'NONE', *, *, #188, .F. ) ;
#145 = DIRECTION ( 'NONE',  ( -3.491481338843133355E-15, 1.224646799147353207E-16, -1.000000000000000000 ) ) ;
#146 = CONICAL_SURFACE ( 'NONE', #51, 0.8499999999999953149, 1.134464013796309123 ) ;
#147 = DIRECTION ( 'NONE',  ( -4.275831445896958607E-31, -1.000000000000000000, -1.224646799147353207E-16 ) ) ;
#148 = DIRECTION ( 'NONE',  ( -3.491481338843133355E-15, 1.224646799147353207E-16, -1.000000000000000000 ) ) ;
#149 = DIRECTION ( 'NONE',  ( -3.491481338843133355E-15, 1.224646799147353207E-16, -1.000000000000000000 ) ) ;
#150 = APPROVAL_ROLE ( '' ) ;
#151 = AXIS2_PLACEMENT_3D ( 'NONE', #133, #81, #147 ) ;
#152 = PERSON_AND_ORGANIZATION ( #107, #75 ) ;
#153 = LOCAL_TIME ( 13, 20, 6.000000000000000000, #39 ) ;
#154 = APPROVAL_DATE_TIME ( #197, #93 ) ;
#155 = CIRCLE ( 'NONE', #176, 0.6500000000000000222 ) ;
#156 = CARTESIAN_POINT ( 'NONE',  ( 0.0000000000000000000, 0.0000000000000000000, 0.0000000000000000000 ) ) ;
#157 = FACE_OUTER_BOUND ( 'NONE', #82, .T. ) ;
#158 = VERTEX_POINT ( 'NONE', #111 ) ;
#159 = DIRECTION ( 'NONE',  ( 3.491481338843133355E-15, -1.224646799147353207E-16, 1.000000000000000000 ) ) ;
#160 = PERSON_AND_ORGANIZATION ( #107, #75 ) ;
#161 = DATE_TIME_ROLE ( 'classification_date' ) ;
#162 = COORDINATED_UNIVERSAL_TIME_OFFSET ( 1, 0, .AHEAD. ) ;
#163 = EDGE_LOOP ( 'NONE', ( #63 ) ) ;
#164 = CARTESIAN_POINT ( 'NONE',  ( 0.0000000000000000000, 0.0000000000000000000, 0.0000000000000000000 ) ) ;
#165 = ORIENTED_EDGE ( 'NONE', *, *, #69, .T. ) ;
#166 = APPROVAL_STATUS ( 'not_yet_approved' ) ;
#167 = PRODUCT_DEFINITION_FORMATION_WITH_SPECIFIED_SOURCE ( 'ANY', '', #173, .NOT_KNOWN. ) ;
#168 = DIRECTION ( 'NONE',  ( -3.491481338843133355E-15, 1.224646799147353207E-16, -1.000000000000000000 ) ) ;
#169 = ORIENTED_EDGE ( 'NONE', *, *, #69, .F. ) ;
#170 = CARTESIAN_POINT ( 'NONE',  ( 1.383888813616657961E-15, -4.854028538308082736E-17, 0.3963615094317518017 ) ) ;
#171 = EDGE_LOOP ( 'NONE', ( #169 ) ) ;
#172 = DIRECTION ( 'NONE',  ( 4.275831445896958607E-31, 1.000000000000000000, 1.224646799147353207E-16 ) ) ;
#173 = PRODUCT ( '55631', '55631', '', ( #9 ) ) ;
#174 = APPROVAL_PERSON_ORGANIZATION ( #152, #93, #139 ) ;
#175 = FACE_OUTER_BOUND ( 'NONE', #43, .T. ) ;
#176 = AXIS2_PLACEMENT_3D ( 'NONE', #187, #13, #112 ) ;
#177 = DATE_AND_TIME ( #92, #153 ) ;
#178 = CALENDAR_DATE ( 2021, 6, 10 ) ;
#179 = APPROVAL_ROLE ( '' ) ;
#180 =( NAMED_UNIT ( * ) SI_UNIT ( $, .STERADIAN. ) SOLID_ANGLE_UNIT ( ) );
#181 = COORDINATED_UNIVERSAL_TIME_OFFSET ( 1, 0, .AHEAD. ) ;
#182 = DIRECTION ( 'NONE',  ( 4.531599869146461927E-31, 1.000000000000000000, 1.275531967630012148E-16 ) ) ;
#183 = CYLINDRICAL_SURFACE ( 'NONE', #22, 0.8499999999999963141 ) ;
#184 = EDGE_LOOP ( 'NONE', ( #19 ) ) ;
#185 = DIRECTION ( 'NONE',  ( 0.0000000000000000000, 1.000000000000000000, 0.0000000000000000000 ) ) ;
#186 = CLOSED_SHELL ( 'NONE', ( #21, #20, #114 ) ) ;
#187 = CARTESIAN_POINT ( 'NONE',  ( 1.326762908760390423E-13, -4.653657836759941941E-15, 38.00000000000000000 ) ) ;
#188 = EDGE_CURVE ( 'NONE', #97, #97, #135, .T. ) ;
#189 = ORIENTED_EDGE ( 'NONE', *, *, #196, .T. ) ;
#190 = PERSON_AND_ORGANIZATION ( #107, #75 ) ;
#191 = ADVANCED_FACE ( 'NONE', ( #2 ), #200, .F. ) ;
#192 = SECURITY_CLASSIFICATION_LEVEL ( 'unclassified' ) ;
#193 = CC_DESIGN_PERSON_AND_ORGANIZATION_ASSIGNMENT ( #160, #89, ( #167 ) ) ;
#194 = PERSON_AND_ORGANIZATION ( #107, #75 ) ;
#195 = CALENDAR_DATE ( 2021, 6, 10 ) ;
#196 = EDGE_CURVE ( 'NONE', #64, #64, #126, .T. ) ;
#197 = DATE_AND_TIME ( #195, #4 ) ;
#198 =( GEOMETRIC_REPRESENTATION_CONTEXT ( 3 ) GLOBAL_UNCERTAINTY_ASSIGNED_CONTEXT ( ( #76 ) ) GLOBAL_UNIT_ASSIGNED_CONTEXT ( ( #98, #70, #180 ) ) REPRESENTATION_CONTEXT ( 'NONE', 'WORKASPACE' ) );
#199 = CC_DESIGN_PERSON_AND_ORGANIZATION_ASSIGNMENT ( #73, #88, ( #173 ) ) ;
#200 = PLANE ( 'NONE',  #59 ) ;
#201 = LOCAL_TIME ( 13, 20, 6.000000000000000000, #105 ) ;
#202 = DIRECTION ( 'NONE',  ( 3.491481338843133355E-15, -1.224646799147353207E-16, 1.000000000000000000 ) ) ;
#203 = PRODUCT_RELATED_PRODUCT_CATEGORY ( 'detail', '', ( #173 ) ) ;
ENDSEC;
END-ISO-10303-21;
