ISO-10303-21;
HEADER;
FILE_DESCRIPTION (( 'STEP AP203' ),
    '1' );
FILE_NAME ('55629.step',
    '2021-10-06T11:20:04',
    ( '' ),
    ( '' ),
    'SwSTEP 2.0',
    'SolidWorks 2019',
    '' );
FILE_SCHEMA (( 'CONFIG_CONTROL_DESIGN' ));
ENDSEC;

DATA;
#1 = APPROVAL_STATUS ( 'not_yet_approved' ) ;
#2 = DIRECTION ( 'NONE',  ( -3.491481338843133355E-15, 1.224646799147353207E-16, -1.000000000000000000 ) ) ;
#3 = PERSON_AND_ORGANIZATION ( #201, #119 ) ;
#4 = DIRECTION ( 'NONE',  ( -3.491481338843133355E-15, 1.224646799147353207E-16, -1.000000000000000000 ) ) ;
#5 = LOCAL_TIME ( 13, 20, 4.000000000000000000, #22 ) ;
#6 = FACE_OUTER_BOUND ( 'NONE', #52, .T. ) ;
#7 = SHAPE_DEFINITION_REPRESENTATION ( #13, #152 ) ;
#8 = EDGE_CURVE ( 'NONE', #111, #111, #103, .T. ) ;
#9 = CALENDAR_DATE ( 2021, 6, 10 ) ;
#10 = PRODUCT_RELATED_PRODUCT_CATEGORY ( 'detail', '', ( #123 ) ) ;
#11 = LOCAL_TIME ( 13, 20, 4.000000000000000000, #105 ) ;
#12 = APPROVAL ( #159, 'UNSPECIFIED' ) ;
#13 = PRODUCT_DEFINITION_SHAPE ( 'NONE', 'NONE',  #101 ) ;
#14 = CARTESIAN_POINT ( 'NONE',  ( 1.326762908760390423E-13, -4.653657836759941941E-15, 38.00000000000000000 ) ) ;
#15 = VERTEX_POINT ( 'NONE', #73 ) ;
#16 = CARTESIAN_POINT ( 'NONE',  ( 1.326762908760390423E-13, 0.6249999999999953371, 38.00000000000000000 ) ) ;
#17 = EDGE_CURVE ( 'NONE', #106, #106, #149, .T. ) ;
#18 = DATE_AND_TIME ( #94, #135 ) ;
#19 = CARTESIAN_POINT ( 'NONE',  ( 0.0000000000000000000, 0.0000000000000000000, 0.0000000000000000000 ) ) ;
#20 = EDGE_LOOP ( 'NONE', ( #116 ) ) ;
#21 = ORIENTED_EDGE ( 'NONE', *, *, #38, .T. ) ;
#22 = COORDINATED_UNIVERSAL_TIME_OFFSET ( 1, 0, .AHEAD. ) ;
#23 = CC_DESIGN_APPROVAL ( #199, ( #101 ) ) ;
#24 = DIRECTION ( 'NONE',  ( 4.275831445896958607E-31, 1.000000000000000000, 1.224646799147353207E-16 ) ) ;
#25 = APPROVAL_PERSON_ORGANIZATION ( #181, #199, #60 ) ;
#26 = ADVANCED_FACE ( 'NONE', ( #177, #162 ), #56, .T. ) ;
#27 = DIRECTION ( 'NONE',  ( 4.275831445896958607E-31, 1.000000000000000000, 1.224646799147353207E-16 ) ) ;
#28 = DIRECTION ( 'NONE',  ( 3.491481338843133355E-15, -1.224646799147353207E-16, 1.000000000000000000 ) ) ;
#29 = CARTESIAN_POINT ( 'NONE',  ( 1.343186201451461994E-15, -4.711262993063727017E-17, 0.3847038179778766720 ) ) ;
#30 = CC_DESIGN_APPROVAL ( #12, ( #33 ) ) ;
#31 = COORDINATED_UNIVERSAL_TIME_OFFSET ( 1, 0, .AHEAD. ) ;
#32 = CARTESIAN_POINT ( 'NONE',  ( 5.586370142149013368E-14, -1.959434878635765131E-15, 16.00000000000000000 ) ) ;
#33 = SECURITY_CLASSIFICATION ( '', '', #86 ) ;
#34 = APPROVAL_ROLE ( '' ) ;
#35 = EDGE_LOOP ( 'NONE', ( #47 ) ) ;
#36 = DIRECTION ( 'NONE',  ( -4.275831445896958607E-31, -1.000000000000000000, -1.224646799147353207E-16 ) ) ;
#37 = CALENDAR_DATE ( 2021, 6, 10 ) ;
#38 = EDGE_CURVE ( 'NONE', #153, #153, #187, .T. ) ;
#39 = PLANE ( 'NONE',  #139 ) ;
#40 = DIRECTION ( 'NONE',  ( 4.275831445896958607E-31, 1.000000000000000000, 1.224646799147353207E-16 ) ) ;
#41 = DIRECTION ( 'NONE',  ( -3.491481338843133355E-15, 1.224646799147353207E-16, -1.000000000000000000 ) ) ;
#42 = APPLICATION_PROTOCOL_DEFINITION ( 'international standard', 'config_control_design', 1994, #102 ) ;
#43 = DIRECTION ( 'NONE',  ( -3.491481338843133355E-15, 1.224646799147353207E-16, -1.000000000000000000 ) ) ;
#44 = DESIGN_CONTEXT ( 'detailed design', #46, 'design' ) ;
#45 = VERTEX_POINT ( 'NONE', #16 ) ;
#46 = APPLICATION_CONTEXT ( 'configuration controlled 3d designs of mechanical parts and assemblies' ) ;
#47 = ORIENTED_EDGE ( 'NONE', *, *, #17, .F. ) ;
#48 = FACE_OUTER_BOUND ( 'NONE', #117, .T. ) ;
#49 = PERSON_AND_ORGANIZATION_ROLE ( 'design_supplier' ) ;
#50 = CARTESIAN_POINT ( 'NONE',  ( 5.586370142149013368E-14, 6.186509103480113368E-33, 16.00000000000000000 ) ) ;
#51 = ORIENTED_EDGE ( 'NONE', *, *, #197, .T. ) ;
#52 = EDGE_LOOP ( 'NONE', ( #51 ) ) ;
#53 = LOCAL_TIME ( 13, 20, 4.000000000000000000, #79 ) ;
#54 = DATE_AND_TIME ( #9, #5 ) ;
#55 = DIRECTION ( 'NONE',  ( 0.0000000000000000000, 1.000000000000000000, 0.0000000000000000000 ) ) ;
#56 = CONICAL_SURFACE ( 'NONE', #74, 0.6250000000000000000, 0.7853981633974512766 ) ;
#57 = PERSON_AND_ORGANIZATION ( #201, #119 ) ;
#58 = CARTESIAN_POINT ( 'NONE',  ( 1.326762908760390423E-13, -4.653657836759941941E-15, 38.00000000000000000 ) ) ;
#59 = DIRECTION ( 'NONE',  ( -4.668921077302416672E-31, -1.000000000000000000, -1.314184451497588655E-16 ) ) ;
#60 = APPROVAL_ROLE ( '' ) ;
#61 = APPROVAL_STATUS ( 'not_yet_approved' ) ;
#62 = LOCAL_TIME ( 13, 20, 4.000000000000000000, #66 ) ;
#63 =( LENGTH_UNIT ( ) NAMED_UNIT ( * ) SI_UNIT ( .MILLI., .METRE. ) );
#64 = ORIENTED_EDGE ( 'NONE', *, *, #17, .T. ) ;
#65 = PERSON_AND_ORGANIZATION ( #201, #119 ) ;
#66 = COORDINATED_UNIVERSAL_TIME_OFFSET ( 1, 0, .AHEAD. ) ;
#67 = DIRECTION ( 'NONE',  ( -3.491481338843133355E-15, 1.224646799147353207E-16, -1.000000000000000000 ) ) ;
#68 = AXIS2_PLACEMENT_3D ( 'NONE', #29, #104, #59 ) ;
#69 = CARTESIAN_POINT ( 'NONE',  ( 0.0000000000000000000, 0.0000000000000000000, 0.0000000000000000000 ) ) ;
#70 = CC_DESIGN_APPROVAL ( #113, ( #118 ) ) ;
#71 = DIRECTION ( 'NONE',  ( 4.668921077302416672E-31, 1.000000000000000000, 1.314184451497588655E-16 ) ) ;
#72 = CC_DESIGN_PERSON_AND_ORGANIZATION_ASSIGNMENT ( #147, #195, ( #33 ) ) ;
#73 = CARTESIAN_POINT ( 'NONE',  ( 5.586370142149013368E-14, 0.8249999999999952927, 16.00000000000000000 ) ) ;
#74 = AXIS2_PLACEMENT_3D ( 'NONE', #14, #2, #75 ) ;
#75 = DIRECTION ( 'NONE',  ( 0.0000000000000000000, 1.000000000000000000, 0.0000000000000000000 ) ) ;
#76 = PERSON_AND_ORGANIZATION ( #201, #119 ) ;
#77 = ADVANCED_FACE ( 'NONE', ( #137 ), #100, .T. ) ;
#78 = FACE_OUTER_BOUND ( 'NONE', #35, .T. ) ;
#79 = COORDINATED_UNIVERSAL_TIME_OFFSET ( 1, 0, .AHEAD. ) ;
#80 = AXIS2_PLACEMENT_3D ( 'NONE', #82, #95, #112 ) ;
#81 = ADVANCED_FACE ( 'NONE', ( #165 ), #39, .T. ) ;
#82 = CARTESIAN_POINT ( 'NONE',  ( 1.319779946082704535E-13, -4.629164900776995227E-15, 37.79999999999999716 ) ) ;
#83 = ORIENTED_EDGE ( 'NONE', *, *, #8, .F. ) ;
#84 = ORIENTED_EDGE ( 'NONE', *, *, #38, .F. ) ;
#85 = CLOSED_SHELL ( 'NONE', ( #77, #131, #81 ) ) ;
#86 = SECURITY_CLASSIFICATION_LEVEL ( 'unclassified' ) ;
#87 = APPROVAL_PERSON_ORGANIZATION ( #97, #12, #34 ) ;
#88 = CC_DESIGN_DATE_AND_TIME_ASSIGNMENT ( #18, #144, ( #101 ) ) ;
#89 =( NAMED_UNIT ( * ) SI_UNIT ( $, .STERADIAN. ) SOLID_ANGLE_UNIT ( ) );
#90 = DIRECTION ( 'NONE',  ( -4.275831445896958607E-31, -1.000000000000000000, -1.224646799147353207E-16 ) ) ;
#91 = APPROVAL_PERSON_ORGANIZATION ( #3, #113, #141 ) ;
#92 =( NAMED_UNIT ( * ) PLANE_ANGLE_UNIT ( ) SI_UNIT ( $, .RADIAN. ) );
#93 = FACE_OUTER_BOUND ( 'NONE', #98, .T. ) ;
#94 = CALENDAR_DATE ( 2021, 6, 10 ) ;
#95 = DIRECTION ( 'NONE',  ( -3.491481338843133355E-15, 1.224646799147353207E-16, -1.000000000000000000 ) ) ;
#96 = AXIS2_PLACEMENT_3D ( 'NONE', #69, #163, #24 ) ;
#97 = PERSON_AND_ORGANIZATION ( #201, #119 ) ;
#98 = EDGE_LOOP ( 'NONE', ( #84 ) ) ;
#99 = CIRCLE ( 'NONE', #145, 0.8249999999999972911 ) ;
#100 = CONICAL_SURFACE ( 'NONE', #68, 0.8249999999999952927, 1.134464013796309123 ) ;
#101 = PRODUCT_DEFINITION ( 'UNKNOWN', '', #118, #44 ) ;
#102 = APPLICATION_CONTEXT ( 'configuration controlled 3d designs of mechanical parts and assemblies' ) ;
#103 = CIRCLE ( 'NONE', #80, 0.8249999999999999556 ) ;
#104 = DIRECTION ( 'NONE',  ( 3.491481338843133355E-15, -1.224646799147353207E-16, 1.000000000000000000 ) ) ;
#105 = COORDINATED_UNIVERSAL_TIME_OFFSET ( 1, 0, .AHEAD. ) ;
#106 = VERTEX_POINT ( 'NONE', #168 ) ;
#107 = CC_DESIGN_DATE_AND_TIME_ASSIGNMENT ( #132, #130, ( #33 ) ) ;
#108 = CIRCLE ( 'NONE', #133, 0.6250000000000000000 ) ;
#109 = DATE_AND_TIME ( #183, #53 ) ;
#110 = APPROVAL_DATE_TIME ( #166, #199 ) ;
#111 = VERTEX_POINT ( 'NONE', #151 ) ;
#112 = DIRECTION ( 'NONE',  ( 0.0000000000000000000, 1.000000000000000000, 0.0000000000000000000 ) ) ;
#113 = APPROVAL ( #61, 'UNSPECIFIED' ) ;
#114 = AXIS2_PLACEMENT_3D ( 'NONE', #156, #4, #40 ) ;
#115 = DIRECTION ( 'NONE',  ( 3.491481338843133355E-15, -1.224646799147353207E-16, 1.000000000000000000 ) ) ;
#116 = ORIENTED_EDGE ( 'NONE', *, *, #8, .T. ) ;
#117 = EDGE_LOOP ( 'NONE', ( #64 ) ) ;
#118 = PRODUCT_DEFINITION_FORMATION_WITH_SPECIFIED_SOURCE ( 'ANY', '', #123, .NOT_KNOWN. ) ;
#119 = ORGANIZATION ( 'UNSPECIFIED', 'UNSPECIFIED', '' ) ;
#120 = PERSON_AND_ORGANIZATION_ROLE ( 'design_owner' ) ;
#121 = ADVANCED_FACE ( 'NONE', ( #167 ), #122, .F. ) ;
#122 = PLANE ( 'NONE',  #198 ) ;
#123 = PRODUCT ( '55629', '55629', '', ( #164 ) ) ;
#124 = DIRECTION ( 'NONE',  ( 1.000000000000000000, 0.0000000000000000000, 0.0000000000000000000 ) ) ;
#125 = AXIS2_PLACEMENT_3D ( 'NONE', #32, #67, #55 ) ;
#126 = CARTESIAN_POINT ( 'NONE',  ( 1.343186201451461994E-15, -4.711262993063727017E-17, 0.3847038179778766720 ) ) ;
#127 = CC_DESIGN_PERSON_AND_ORGANIZATION_ASSIGNMENT ( #57, #170, ( #101 ) ) ;
#128 = EDGE_LOOP ( 'NONE', ( #21 ) ) ;
#129 = MANIFOLD_SOLID_BREP ( 'Corps-Déplacer/Copier1[1]', #175 ) ;
#130 = DATE_TIME_ROLE ( 'classification_date' ) ;
#131 = ADVANCED_FACE ( 'NONE', ( #93, #6 ), #161, .T. ) ;
#132 = DATE_AND_TIME ( #37, #62 ) ;
#133 = AXIS2_PLACEMENT_3D ( 'NONE', #58, #154, #191 ) ;
#134 = UNCERTAINTY_MEASURE_WITH_UNIT (LENGTH_MEASURE( 1.000000000000000082E-05 ), #63, 'distance_accuracy_value', 'NONE');
#135 = LOCAL_TIME ( 13, 20, 4.000000000000000000, #31 ) ;
#136 = EDGE_CURVE ( 'NONE', #45, #45, #108, .T. ) ;
#137 = FACE_OUTER_BOUND ( 'NONE', #128, .T. ) ;
#138 = CARTESIAN_POINT ( 'NONE',  ( 5.586370142149013368E-14, -1.959434878635765131E-15, 16.00000000000000000 ) ) ;
#139 = AXIS2_PLACEMENT_3D ( 'NONE', #182, #28, #90 ) ;
#140 = CARTESIAN_POINT ( 'NONE',  ( 1.326762908760390423E-13, 4.686749320818235233E-33, 38.00000000000000000 ) ) ;
#141 = APPROVAL_ROLE ( '' ) ;
#142 = APPLICATION_PROTOCOL_DEFINITION ( 'international standard', 'config_control_design', 1994, #46 ) ;
#143 = APPROVAL_DATE_TIME ( #109, #113 ) ;
#144 = DATE_TIME_ROLE ( 'creation_date' ) ;
#145 = AXIS2_PLACEMENT_3D ( 'NONE', #138, #43, #184 ) ;
#146 = CYLINDRICAL_SURFACE ( 'NONE', #114, 0.8249999999999987343 ) ;
#147 = PERSON_AND_ORGANIZATION ( #201, #119 ) ;
#148 = APPROVAL_DATE_TIME ( #54, #12 ) ;
#149 = CIRCLE ( 'NONE', #125, 0.8249999999999972911 ) ;
#150 = CC_DESIGN_PERSON_AND_ORGANIZATION_ASSIGNMENT ( #65, #49, ( #118 ) ) ;
#151 = CARTESIAN_POINT ( 'NONE',  ( 1.319779946082704535E-13, 0.8249999999999952927, 37.79999999999999716 ) ) ;
#152 = ADVANCED_BREP_SHAPE_REPRESENTATION ( '55629', ( #129, #200, #192 ), #178 ) ;
#153 = VERTEX_POINT ( 'NONE', #202 ) ;
#154 = DIRECTION ( 'NONE',  ( -3.491481338843133355E-15, 1.224646799147353207E-16, -1.000000000000000000 ) ) ;
#155 = CC_DESIGN_SECURITY_CLASSIFICATION ( #33, ( #118 ) ) ;
#156 = CARTESIAN_POINT ( 'NONE',  ( 0.0000000000000000000, 0.0000000000000000000, 0.0000000000000000000 ) ) ;
#157 = FACE_OUTER_BOUND ( 'NONE', #20, .T. ) ;
#158 = EDGE_LOOP ( 'NONE', ( #189 ) ) ;
#159 = APPROVAL_STATUS ( 'not_yet_approved' ) ;
#160 = PERSON_AND_ORGANIZATION_ROLE ( 'creator' ) ;
#161 = CYLINDRICAL_SURFACE ( 'NONE', #96, 0.8249999999999962919 ) ;
#162 = FACE_BOUND ( 'NONE', #158, .T. ) ;
#163 = DIRECTION ( 'NONE',  ( -3.491481338843133355E-15, 1.224646799147353207E-16, -1.000000000000000000 ) ) ;
#164 = MECHANICAL_CONTEXT ( 'NONE', #102, 'mechanical' ) ;
#165 = FACE_OUTER_BOUND ( 'NONE', #194, .T. ) ;
#166 = DATE_AND_TIME ( #186, #11 ) ;
#167 = FACE_OUTER_BOUND ( 'NONE', #171, .T. ) ;
#168 = CARTESIAN_POINT ( 'NONE',  ( 5.586370142149013368E-14, 0.8249999999999952927, 16.00000000000000000 ) ) ;
#169 = AXIS2_PLACEMENT_3D ( 'NONE', #126, #41, #71 ) ;
#170 = PERSON_AND_ORGANIZATION_ROLE ( 'creator' ) ;
#171 = EDGE_LOOP ( 'NONE', ( #193 ) ) ;
#172 = PLANE ( 'NONE',  #180 ) ;
#173 = ORIENTED_EDGE ( 'NONE', *, *, #197, .F. ) ;
#174 = EDGE_LOOP ( 'NONE', ( #83 ) ) ;
#175 = CLOSED_SHELL ( 'NONE', ( #190, #203, #26, #121 ) ) ;
#176 = PERSON_AND_ORGANIZATION ( #201, #119 ) ;
#177 = FACE_OUTER_BOUND ( 'NONE', #174, .T. ) ;
#178 =( GEOMETRIC_REPRESENTATION_CONTEXT ( 3 ) GLOBAL_UNCERTAINTY_ASSIGNED_CONTEXT ( ( #134 ) ) GLOBAL_UNIT_ASSIGNED_CONTEXT ( ( #63, #92, #89 ) ) REPRESENTATION_CONTEXT ( 'NONE', 'WORKASPACE' ) );
#179 = CC_DESIGN_PERSON_AND_ORGANIZATION_ASSIGNMENT ( #176, #160, ( #118 ) ) ;
#180 = AXIS2_PLACEMENT_3D ( 'NONE', #50, #115, #36 ) ;
#181 = PERSON_AND_ORGANIZATION ( #201, #119 ) ;
#182 = CARTESIAN_POINT ( 'NONE',  ( 5.586370142149013368E-14, 6.186509103480113368E-33, 16.00000000000000000 ) ) ;
#183 = CALENDAR_DATE ( 2021, 6, 10 ) ;
#184 = DIRECTION ( 'NONE',  ( 0.0000000000000000000, 1.000000000000000000, 0.0000000000000000000 ) ) ;
#185 = DIRECTION ( 'NONE',  ( -3.491481338843133355E-15, 1.224646799147353207E-16, -1.000000000000000000 ) ) ;
#186 = CALENDAR_DATE ( 2021, 6, 10 ) ;
#187 = CIRCLE ( 'NONE', #169, 0.8249999999999952927 ) ;
#188 = DIRECTION ( 'NONE',  ( 0.0000000000000000000, 0.0000000000000000000, 1.000000000000000000 ) ) ;
#189 = ORIENTED_EDGE ( 'NONE', *, *, #136, .T. ) ;
#190 = ADVANCED_FACE ( 'NONE', ( #48 ), #172, .F. ) ;
#191 = DIRECTION ( 'NONE',  ( 0.0000000000000000000, 1.000000000000000000, 0.0000000000000000000 ) ) ;
#192 = AXIS2_PLACEMENT_3D ( 'NONE', #19, #188, #124 ) ;
#193 = ORIENTED_EDGE ( 'NONE', *, *, #136, .F. ) ;
#194 = EDGE_LOOP ( 'NONE', ( #173 ) ) ;
#195 = PERSON_AND_ORGANIZATION_ROLE ( 'classification_officer' ) ;
#196 = CC_DESIGN_PERSON_AND_ORGANIZATION_ASSIGNMENT ( #76, #120, ( #123 ) ) ;
#197 = EDGE_CURVE ( 'NONE', #15, #15, #99, .T. ) ;
#198 = AXIS2_PLACEMENT_3D ( 'NONE', #140, #185, #27 ) ;
#199 = APPROVAL ( #1, 'UNSPECIFIED' ) ;
#200 = MANIFOLD_SOLID_BREP ( 'Corps-Déplacer/Copier1[2]', #85 ) ;
#201 = PERSON ( 'UNSPECIFIED', 'UNSPECIFIED', 'UNSPECIFIED', ('UNSPECIFIED'), ('UNSPECIFIED'), ('UNSPECIFIED') ) ;
#202 = CARTESIAN_POINT ( 'NONE',  ( 1.343186201451462388E-15, 0.8249999999999952927, 0.3847038179778767830 ) ) ;
#203 = ADVANCED_FACE ( 'NONE', ( #78, #157 ), #146, .T. ) ;
ENDSEC;
END-ISO-10303-21;
