ISO-10303-21;
HEADER;
FILE_DESCRIPTION (( 'STEP AP203' ),
    '1' );
FILE_NAME ('55627.step',
    '2021-10-06T11:20:03',
    ( '' ),
    ( '' ),
    'SwSTEP 2.0',
    'SolidWorks 2019',
    '' );
FILE_SCHEMA (( 'CONFIG_CONTROL_DESIGN' ));
ENDSEC;

DATA;
#1 = DIRECTION ( 'NONE',  ( -3.491481338843133355E-15, 1.224646799147353207E-16, -1.000000000000000000 ) ) ;
#2 = CONICAL_SURFACE ( 'NONE', #16, 0.7999999999999953815, 1.134464013796309123 ) ;
#3 = DIRECTION ( 'NONE',  ( 4.814824860968117659E-31, 1.000000000000000000, 1.355252715606888431E-16 ) ) ;
#4 = CARTESIAN_POINT ( 'NONE',  ( 5.586370142149013368E-14, -1.959434878635765131E-15, 16.00000000000000000 ) ) ;
#5 = DATE_AND_TIME ( #139, #166 ) ;
#6 = ORIENTED_EDGE ( 'NONE', *, *, #127, .T. ) ;
#7 = DATE_TIME_ROLE ( 'creation_date' ) ;
#8 = APPROVAL ( #55, 'UNSPECIFIED' ) ;
#9 = PERSON_AND_ORGANIZATION ( #61, #46 ) ;
#10 = CARTESIAN_POINT ( 'NONE',  ( 1.319779946082704535E-13, -4.629164900776995227E-15, 37.79999999999999716 ) ) ;
#11 = VERTEX_POINT ( 'NONE', #80 ) ;
#12 = ADVANCED_FACE ( 'NONE', ( #13, #147 ), #67, .T. ) ;
#13 = FACE_OUTER_BOUND ( 'NONE', #157, .T. ) ;
#14 = ORIENTED_EDGE ( 'NONE', *, *, #127, .F. ) ;
#15 = CC_DESIGN_APPROVAL ( #8, ( #83 ) ) ;
#16 = AXIS2_PLACEMENT_3D ( 'NONE', #188, #113, #116 ) ;
#17 = PLANE ( 'NONE',  #186 ) ;
#18 = PERSON_AND_ORGANIZATION ( #61, #46 ) ;
#19 = APPROVAL_PERSON_ORGANIZATION ( #9, #8, #22 ) ;
#20 = CARTESIAN_POINT ( 'NONE',  ( 5.586370142149013368E-14, 0.7999999999999953815, 16.00000000000000000 ) ) ;
#21 = APPLICATION_CONTEXT ( 'configuration controlled 3d designs of mechanical parts and assemblies' ) ;
#22 = APPROVAL_ROLE ( '' ) ;
#23 = EDGE_LOOP ( 'NONE', ( #76 ) ) ;
#24 = ADVANCED_FACE ( 'NONE', ( #44, #32 ), #185, .T. ) ;
#25 = PLANE ( 'NONE',  #163 ) ;
#26 = CARTESIAN_POINT ( 'NONE',  ( 5.586370142149013368E-14, 0.7999999999999953815, 16.00000000000000000 ) ) ;
#27 = CALENDAR_DATE ( 2021, 6, 10 ) ;
#28 = ORIENTED_EDGE ( 'NONE', *, *, #70, .F. ) ;
#29 = FACE_BOUND ( 'NONE', #177, .T. ) ;
#30 = CARTESIAN_POINT ( 'NONE',  ( 5.586370142149013368E-14, 5.999039130647381851E-33, 16.00000000000000000 ) ) ;
#31 = DATE_AND_TIME ( #27, #92 ) ;
#32 = FACE_OUTER_BOUND ( 'NONE', #42, .T. ) ;
#33 = CALENDAR_DATE ( 2021, 6, 10 ) ;
#34 = APPLICATION_PROTOCOL_DEFINITION ( 'international standard', 'config_control_design', 1994, #21 ) ;
#35 = ORIENTED_EDGE ( 'NONE', *, *, #93, .F. ) ;
#36 = PRODUCT_RELATED_PRODUCT_CATEGORY ( 'detail', '', ( #96 ) ) ;
#37 = PERSON_AND_ORGANIZATION_ROLE ( 'design_supplier' ) ;
#38 = COORDINATED_UNIVERSAL_TIME_OFFSET ( 1, 0, .AHEAD. ) ;
#39 = CC_DESIGN_SECURITY_CLASSIFICATION ( #140, ( #198 ) ) ;
#40 = APPROVAL_PERSON_ORGANIZATION ( #72, #107, #117 ) ;
#41 = AXIS2_PLACEMENT_3D ( 'NONE', #82, #1, #173 ) ;
#42 = EDGE_LOOP ( 'NONE', ( #51 ) ) ;
#43 = CC_DESIGN_PERSON_AND_ORGANIZATION_ASSIGNMENT ( #18, #73, ( #140 ) ) ;
#44 = FACE_OUTER_BOUND ( 'NONE', #126, .T. ) ;
#45 = DIRECTION ( 'NONE',  ( -4.275831445896958607E-31, -1.000000000000000000, -1.224646799147353207E-16 ) ) ;
#46 = ORGANIZATION ( 'UNSPECIFIED', 'UNSPECIFIED', '' ) ;
#47 = FACE_OUTER_BOUND ( 'NONE', #165, .T. ) ;
#48 = APPROVAL_STATUS ( 'not_yet_approved' ) ;
#49 = FACE_OUTER_BOUND ( 'NONE', #118, .T. ) ;
#50 = PERSON_AND_ORGANIZATION ( #61, #46 ) ;
#51 = ORIENTED_EDGE ( 'NONE', *, *, #93, .T. ) ;
#52 = CLOSED_SHELL ( 'NONE', ( #62, #12, #89 ) ) ;
#53 = EDGE_LOOP ( 'NONE', ( #35 ) ) ;
#54 = PERSON_AND_ORGANIZATION ( #61, #46 ) ;
#55 = APPROVAL_STATUS ( 'not_yet_approved' ) ;
#56 = AXIS2_PLACEMENT_3D ( 'NONE', #153, #63, #169 ) ;
#57 = AXIS2_PLACEMENT_3D ( 'NONE', #4, #143, #98 ) ;
#58 = PERSON_AND_ORGANIZATION_ROLE ( 'design_owner' ) ;
#59 = DATE_TIME_ROLE ( 'classification_date' ) ;
#60 = AXIS2_PLACEMENT_3D ( 'NONE', #168, #94, #158 ) ;
#61 = PERSON ( 'UNSPECIFIED', 'UNSPECIFIED', 'UNSPECIFIED', ('UNSPECIFIED'), ('UNSPECIFIED'), ('UNSPECIFIED') ) ;
#62 = ADVANCED_FACE ( 'NONE', ( #49 ), #2, .T. ) ;
#63 = DIRECTION ( 'NONE',  ( -3.491481338843133355E-15, 1.224646799147353207E-16, -1.000000000000000000 ) ) ;
#64 = MANIFOLD_SOLID_BREP ( 'Corps-Déplacer/Copier1[1]', #125 ) ;
#65 = EDGE_LOOP ( 'NONE', ( #81 ) ) ;
#66 = PLANE ( 'NONE',  #112 ) ;
#67 = CYLINDRICAL_SURFACE ( 'NONE', #41, 0.7999999999999963807 ) ;
#68 = DIRECTION ( 'NONE',  ( -3.491481338843133355E-15, 1.224646799147353207E-16, -1.000000000000000000 ) ) ;
#69 = PERSON_AND_ORGANIZATION ( #61, #46 ) ;
#70 = EDGE_CURVE ( 'NONE', #184, #184, #183, .T. ) ;
#71 = DIRECTION ( 'NONE',  ( 0.0000000000000000000, 0.0000000000000000000, 1.000000000000000000 ) ) ;
#72 = PERSON_AND_ORGANIZATION ( #61, #46 ) ;
#73 = PERSON_AND_ORGANIZATION_ROLE ( 'classification_officer' ) ;
#74 = APPROVAL_DATE_TIME ( #87, #8 ) ;
#75 = LOCAL_TIME ( 13, 20, 3.000000000000000000, #138 ) ;
#76 = ORIENTED_EDGE ( 'NONE', *, *, #141, .F. ) ;
#77 = ADVANCED_BREP_SHAPE_REPRESENTATION ( '55627', ( #64, #132, #154 ), #145 ) ;
#78 = APPROVAL ( #48, 'UNSPECIFIED' ) ;
#79 = FACE_OUTER_BOUND ( 'NONE', #164, .T. ) ;
#80 = CARTESIAN_POINT ( 'NONE',  ( 1.326762908760390423E-13, 0.5999999999999954259, 38.00000000000000000 ) ) ;
#81 = ORIENTED_EDGE ( 'NONE', *, *, #141, .T. ) ;
#82 = CARTESIAN_POINT ( 'NONE',  ( 0.0000000000000000000, 0.0000000000000000000, 0.0000000000000000000 ) ) ;
#83 = PRODUCT_DEFINITION ( 'UNKNOWN', '', #198, #152 ) ;
#84 = CARTESIAN_POINT ( 'NONE',  ( 1.326762908760390423E-13, -4.653657836759941941E-15, 38.00000000000000000 ) ) ;
#85 = PRODUCT_DEFINITION_SHAPE ( 'NONE', 'NONE',  #83 ) ;
#86 = CC_DESIGN_PERSON_AND_ORGANIZATION_ASSIGNMENT ( #178, #37, ( #198 ) ) ;
#87 = DATE_AND_TIME ( #33, #174 ) ;
#88 = CIRCLE ( 'NONE', #106, 0.7999999999999953815 ) ;
#89 = ADVANCED_FACE ( 'NONE', ( #144 ), #17, .T. ) ;
#90 = COORDINATED_UNIVERSAL_TIME_OFFSET ( 1, 0, .AHEAD. ) ;
#91 = PERSON_AND_ORGANIZATION ( #61, #46 ) ;
#92 = LOCAL_TIME ( 13, 20, 3.000000000000000000, #190 ) ;
#93 = EDGE_CURVE ( 'NONE', #97, #97, #170, .T. ) ;
#94 = DIRECTION ( 'NONE',  ( -3.491481338843133355E-15, 1.224646799147353207E-16, -1.000000000000000000 ) ) ;
#95 = CIRCLE ( 'NONE', #150, 0.6000000000000000888 ) ;
#96 = PRODUCT ( '55627', '55627', '', ( #149 ) ) ;
#97 = VERTEX_POINT ( 'NONE', #155 ) ;
#98 = DIRECTION ( 'NONE',  ( 0.0000000000000000000, 1.000000000000000000, 0.0000000000000000000 ) ) ;
#99 = ORIENTED_EDGE ( 'NONE', *, *, #115, .T. ) ;
#100 = DIRECTION ( 'NONE',  ( -3.491481338843133355E-15, 1.224646799147353207E-16, -1.000000000000000000 ) ) ;
#101 = DIRECTION ( 'NONE',  ( 3.491481338843133355E-15, -1.224646799147353207E-16, 1.000000000000000000 ) ) ;
#102 = ADVANCED_FACE ( 'NONE', ( #47 ), #25, .F. ) ;
#103 =( LENGTH_UNIT ( ) NAMED_UNIT ( * ) SI_UNIT ( .MILLI., .METRE. ) );
#104 = SECURITY_CLASSIFICATION_LEVEL ( 'unclassified' ) ;
#105 = CC_DESIGN_APPROVAL ( #78, ( #140 ) ) ;
#106 = AXIS2_PLACEMENT_3D ( 'NONE', #146, #114, #3 ) ;
#107 = APPROVAL ( #181, 'UNSPECIFIED' ) ;
#108 = APPLICATION_CONTEXT ( 'configuration controlled 3d designs of mechanical parts and assemblies' ) ;
#109 = LOCAL_TIME ( 13, 20, 3.000000000000000000, #38 ) ;
#110 = CARTESIAN_POINT ( 'NONE',  ( 5.586370142149013368E-14, 5.999039130647381851E-33, 16.00000000000000000 ) ) ;
#111 = CARTESIAN_POINT ( 'NONE',  ( 0.0000000000000000000, 0.0000000000000000000, 0.0000000000000000000 ) ) ;
#112 = AXIS2_PLACEMENT_3D ( 'NONE', #30, #202, #121 ) ;
#113 = DIRECTION ( 'NONE',  ( 3.491481338843133355E-15, -1.224646799147353207E-16, 1.000000000000000000 ) ) ;
#114 = DIRECTION ( 'NONE',  ( -3.491481338843133355E-15, 1.224646799147353207E-16, -1.000000000000000000 ) ) ;
#115 = EDGE_CURVE ( 'NONE', #11, #11, #95, .T. ) ;
#116 = DIRECTION ( 'NONE',  ( -4.814824860968117659E-31, -1.000000000000000000, -1.355252715606888431E-16 ) ) ;
#117 = APPROVAL_ROLE ( '' ) ;
#118 = EDGE_LOOP ( 'NONE', ( #6 ) ) ;
#119 = PERSON_AND_ORGANIZATION_ROLE ( 'creator' ) ;
#120 = COORDINATED_UNIVERSAL_TIME_OFFSET ( 1, 0, .AHEAD. ) ;
#121 = DIRECTION ( 'NONE',  ( -4.275831445896958607E-31, -1.000000000000000000, -1.224646799147353207E-16 ) ) ;
#122 = CC_DESIGN_DATE_AND_TIME_ASSIGNMENT ( #179, #59, ( #140 ) ) ;
#123 = VERTEX_POINT ( 'NONE', #129 ) ;
#124 = DIRECTION ( 'NONE',  ( -3.491481338843133355E-15, 1.224646799147353207E-16, -1.000000000000000000 ) ) ;
#125 = CLOSED_SHELL ( 'NONE', ( #194, #24, #137, #102 ) ) ;
#126 = EDGE_LOOP ( 'NONE', ( #28 ) ) ;
#127 = EDGE_CURVE ( 'NONE', #123, #123, #88, .T. ) ;
#128 = DIRECTION ( 'NONE',  ( 0.0000000000000000000, 1.000000000000000000, 0.0000000000000000000 ) ) ;
#129 = CARTESIAN_POINT ( 'NONE',  ( 1.302483589286266618E-15, 0.7999999999999953815, 0.3730461265240017643 ) ) ;
#130 = APPROVAL_ROLE ( '' ) ;
#131 = UNCERTAINTY_MEASURE_WITH_UNIT (LENGTH_MEASURE( 1.000000000000000082E-05 ), #103, 'distance_accuracy_value', 'NONE');
#132 = MANIFOLD_SOLID_BREP ( 'Corps-Déplacer/Copier1[2]', #52 ) ;
#133 =( NAMED_UNIT ( * ) PLANE_ANGLE_UNIT ( ) SI_UNIT ( $, .RADIAN. ) );
#134 = CONICAL_SURFACE ( 'NONE', #56, 0.6000000000000000888, 0.7853981633974512766 ) ;
#135 = AXIS2_PLACEMENT_3D ( 'NONE', #10, #68, #128 ) ;
#136 = CALENDAR_DATE ( 2021, 6, 10 ) ;
#137 = ADVANCED_FACE ( 'NONE', ( #189, #29 ), #134, .T. ) ;
#138 = COORDINATED_UNIVERSAL_TIME_OFFSET ( 1, 0, .AHEAD. ) ;
#139 = CALENDAR_DATE ( 2021, 6, 10 ) ;
#140 = SECURITY_CLASSIFICATION ( '', '', #104 ) ;
#141 = EDGE_CURVE ( 'NONE', #197, #197, #200, .T. ) ;
#142 = SHAPE_DEFINITION_REPRESENTATION ( #85, #77 ) ;
#143 = DIRECTION ( 'NONE',  ( -3.491481338843133355E-15, 1.224646799147353207E-16, -1.000000000000000000 ) ) ;
#144 = FACE_OUTER_BOUND ( 'NONE', #23, .T. ) ;
#145 =( GEOMETRIC_REPRESENTATION_CONTEXT ( 3 ) GLOBAL_UNCERTAINTY_ASSIGNED_CONTEXT ( ( #131 ) ) GLOBAL_UNIT_ASSIGNED_CONTEXT ( ( #103, #133, #176 ) ) REPRESENTATION_CONTEXT ( 'NONE', 'WORKASPACE' ) );
#146 = CARTESIAN_POINT ( 'NONE',  ( 1.302483589286266223E-15, -4.568497447819371298E-17, 0.3730461265240016533 ) ) ;
#147 = FACE_OUTER_BOUND ( 'NONE', #65, .T. ) ;
#148 = PERSON_AND_ORGANIZATION_ROLE ( 'creator' ) ;
#149 = MECHANICAL_CONTEXT ( 'NONE', #21, 'mechanical' ) ;
#150 = AXIS2_PLACEMENT_3D ( 'NONE', #84, #124, #171 ) ;
#151 = DATE_AND_TIME ( #136, #109 ) ;
#152 = DESIGN_CONTEXT ( 'detailed design', #108, 'design' ) ;
#153 = CARTESIAN_POINT ( 'NONE',  ( 1.326762908760390423E-13, -4.653657836759941941E-15, 38.00000000000000000 ) ) ;
#154 = AXIS2_PLACEMENT_3D ( 'NONE', #175, #71, #161 ) ;
#155 = CARTESIAN_POINT ( 'NONE',  ( 1.319779946082704535E-13, 0.7999999999999953815, 37.79999999999999716 ) ) ;
#156 = APPROVAL_DATE_TIME ( #31, #78 ) ;
#157 = EDGE_LOOP ( 'NONE', ( #14 ) ) ;
#158 = DIRECTION ( 'NONE',  ( 0.0000000000000000000, 1.000000000000000000, 0.0000000000000000000 ) ) ;
#159 = CARTESIAN_POINT ( 'NONE',  ( 1.326762908760390423E-13, 4.499279347985503717E-33, 38.00000000000000000 ) ) ;
#160 = DIRECTION ( 'NONE',  ( 4.275831445896958607E-31, 1.000000000000000000, 1.224646799147353207E-16 ) ) ;
#161 = DIRECTION ( 'NONE',  ( 1.000000000000000000, 0.0000000000000000000, 0.0000000000000000000 ) ) ;
#162 = APPLICATION_PROTOCOL_DEFINITION ( 'international standard', 'config_control_design', 1994, #108 ) ;
#163 = AXIS2_PLACEMENT_3D ( 'NONE', #159, #203, #172 ) ;
#164 = EDGE_LOOP ( 'NONE', ( #187 ) ) ;
#165 = EDGE_LOOP ( 'NONE', ( #192 ) ) ;
#166 = LOCAL_TIME ( 13, 20, 3.000000000000000000, #120 ) ;
#167 = AXIS2_PLACEMENT_3D ( 'NONE', #111, #100, #160 ) ;
#168 = CARTESIAN_POINT ( 'NONE',  ( 5.586370142149013368E-14, -1.959434878635765131E-15, 16.00000000000000000 ) ) ;
#169 = DIRECTION ( 'NONE',  ( 0.0000000000000000000, 1.000000000000000000, 0.0000000000000000000 ) ) ;
#170 = CIRCLE ( 'NONE', #135, 0.8000000000000000444 ) ;
#171 = DIRECTION ( 'NONE',  ( 0.0000000000000000000, 1.000000000000000000, 0.0000000000000000000 ) ) ;
#172 = DIRECTION ( 'NONE',  ( 4.275831445896958607E-31, 1.000000000000000000, 1.224646799147353207E-16 ) ) ;
#173 = DIRECTION ( 'NONE',  ( 4.275831445896958607E-31, 1.000000000000000000, 1.224646799147353207E-16 ) ) ;
#174 = LOCAL_TIME ( 13, 20, 3.000000000000000000, #90 ) ;
#175 = CARTESIAN_POINT ( 'NONE',  ( 0.0000000000000000000, 0.0000000000000000000, 0.0000000000000000000 ) ) ;
#176 =( NAMED_UNIT ( * ) SI_UNIT ( $, .STERADIAN. ) SOLID_ANGLE_UNIT ( ) );
#177 = EDGE_LOOP ( 'NONE', ( #99 ) ) ;
#178 = PERSON_AND_ORGANIZATION ( #61, #46 ) ;
#179 = DATE_AND_TIME ( #195, #75 ) ;
#180 = CC_DESIGN_APPROVAL ( #107, ( #198 ) ) ;
#181 = APPROVAL_STATUS ( 'not_yet_approved' ) ;
#182 = APPROVAL_PERSON_ORGANIZATION ( #69, #78, #130 ) ;
#183 = CIRCLE ( 'NONE', #57, 0.7999999999999973799 ) ;
#184 = VERTEX_POINT ( 'NONE', #26 ) ;
#185 = CYLINDRICAL_SURFACE ( 'NONE', #167, 0.7999999999999986011 ) ;
#186 = AXIS2_PLACEMENT_3D ( 'NONE', #110, #101, #45 ) ;
#187 = ORIENTED_EDGE ( 'NONE', *, *, #70, .T. ) ;
#188 = CARTESIAN_POINT ( 'NONE',  ( 1.302483589286266223E-15, -4.568497447819371298E-17, 0.3730461265240016533 ) ) ;
#189 = FACE_OUTER_BOUND ( 'NONE', #53, .T. ) ;
#190 = COORDINATED_UNIVERSAL_TIME_OFFSET ( 1, 0, .AHEAD. ) ;
#191 = CC_DESIGN_PERSON_AND_ORGANIZATION_ASSIGNMENT ( #54, #119, ( #198 ) ) ;
#192 = ORIENTED_EDGE ( 'NONE', *, *, #115, .F. ) ;
#193 = APPROVAL_DATE_TIME ( #151, #107 ) ;
#194 = ADVANCED_FACE ( 'NONE', ( #79 ), #66, .F. ) ;
#195 = CALENDAR_DATE ( 2021, 6, 10 ) ;
#196 = CC_DESIGN_PERSON_AND_ORGANIZATION_ASSIGNMENT ( #50, #58, ( #96 ) ) ;
#197 = VERTEX_POINT ( 'NONE', #20 ) ;
#198 = PRODUCT_DEFINITION_FORMATION_WITH_SPECIFIED_SOURCE ( 'ANY', '', #96, .NOT_KNOWN. ) ;
#199 = CC_DESIGN_DATE_AND_TIME_ASSIGNMENT ( #5, #7, ( #83 ) ) ;
#200 = CIRCLE ( 'NONE', #60, 0.7999999999999973799 ) ;
#201 = CC_DESIGN_PERSON_AND_ORGANIZATION_ASSIGNMENT ( #91, #148, ( #83 ) ) ;
#202 = DIRECTION ( 'NONE',  ( 3.491481338843133355E-15, -1.224646799147353207E-16, 1.000000000000000000 ) ) ;
#203 = DIRECTION ( 'NONE',  ( -3.491481338843133355E-15, 1.224646799147353207E-16, -1.000000000000000000 ) ) ;
ENDSEC;
END-ISO-10303-21;
