ISO-10303-21;
HEADER;
FILE_DESCRIPTION (( 'STEP AP203' ),
    '1' );
FILE_NAME ('55625.step',
    '2021-10-06T11:20:02',
    ( '' ),
    ( '' ),
    'SwSTEP 2.0',
    'SolidWorks 2019',
    '' );
FILE_SCHEMA (( 'CONFIG_CONTROL_DESIGN' ));
ENDSEC;

DATA;
#1 = CIRCLE ( 'NONE', #165, 0.7749999999999972466 ) ;
#2 = DIRECTION ( 'NONE',  ( -3.491481338843133355E-15, 1.224646799147353207E-16, -1.000000000000000000 ) ) ;
#3 = CIRCLE ( 'NONE', #166, 0.5749999999999999556 ) ;
#4 = PRODUCT_DEFINITION_SHAPE ( 'NONE', 'NONE',  #134 ) ;
#5 = DATE_AND_TIME ( #7, #130 ) ;
#6 = CC_DESIGN_DATE_AND_TIME_ASSIGNMENT ( #138, #193, ( #134 ) ) ;
#7 = CALENDAR_DATE ( 2021, 6, 10 ) ;
#8 = PERSON_AND_ORGANIZATION ( #66, #21 ) ;
#9 = MANIFOLD_SOLID_BREP ( 'Corps-Déplacer/Copier1[1]', #116 ) ;
#10 = PERSON_AND_ORGANIZATION ( #66, #21 ) ;
#11 = MANIFOLD_SOLID_BREP ( 'Corps-Déplacer/Copier1[2]', #104 ) ;
#12 = APPROVAL_DATE_TIME ( #126, #129 ) ;
#13 = AXIS2_PLACEMENT_3D ( 'NONE', #148, #81, #151 ) ;
#14 = EDGE_LOOP ( 'NONE', ( #127 ) ) ;
#15 = EDGE_LOOP ( 'NONE', ( #177 ) ) ;
#16 = CARTESIAN_POINT ( 'NONE',  ( 5.586370142149013368E-14, 5.811569157814648966E-33, 16.00000000000000000 ) ) ;
#17 = AXIS2_PLACEMENT_3D ( 'NONE', #194, #48, #33 ) ;
#18 = ADVANCED_FACE ( 'NONE', ( #200 ), #65, .T. ) ;
#19 = DIRECTION ( 'NONE',  ( 4.970141791967089789E-31, 1.000000000000000000, 1.398970545142594677E-16 ) ) ;
#20 = CIRCLE ( 'NONE', #26, 0.7750000000000000222 ) ;
#21 = ORGANIZATION ( 'UNSPECIFIED', 'UNSPECIFIED', '' ) ;
#22 = CARTESIAN_POINT ( 'NONE',  ( 1.319779946082704535E-13, -4.629164900776995227E-15, 37.79999999999999716 ) ) ;
#23 = APPROVAL_ROLE ( '' ) ;
#24 = LOCAL_TIME ( 13, 20, 2.000000000000000000, #56 ) ;
#25 = VERTEX_POINT ( 'NONE', #82 ) ;
#26 = AXIS2_PLACEMENT_3D ( 'NONE', #22, #118, #167 ) ;
#27 = APPROVAL_DATE_TIME ( #5, #198 ) ;
#28 = DIRECTION ( 'NONE',  ( -3.491481338843133355E-15, 1.224646799147353207E-16, -1.000000000000000000 ) ) ;
#29 = EDGE_CURVE ( 'NONE', #75, #75, #61, .T. ) ;
#30 = COORDINATED_UNIVERSAL_TIME_OFFSET ( 1, 0, .AHEAD. ) ;
#31 = EDGE_LOOP ( 'NONE', ( #154 ) ) ;
#32 = ORIENTED_EDGE ( 'NONE', *, *, #89, .F. ) ;
#33 = DIRECTION ( 'NONE',  ( 4.275831445896958607E-31, 1.000000000000000000, 1.224646799147353207E-16 ) ) ;
#34 = ORIENTED_EDGE ( 'NONE', *, *, #115, .T. ) ;
#35 = DIRECTION ( 'NONE',  ( -4.275831445896958607E-31, -1.000000000000000000, -1.224646799147353207E-16 ) ) ;
#36 = DATE_AND_TIME ( #122, #24 ) ;
#37 = CC_DESIGN_PERSON_AND_ORGANIZATION_ASSIGNMENT ( #10, #96, ( #134 ) ) ;
#38 = APPLICATION_PROTOCOL_DEFINITION ( 'international standard', 'config_control_design', 1994, #133 ) ;
#39 = LOCAL_TIME ( 13, 20, 2.000000000000000000, #30 ) ;
#40 = CALENDAR_DATE ( 2021, 6, 10 ) ;
#41 = CALENDAR_DATE ( 2021, 6, 10 ) ;
#42 = COORDINATED_UNIVERSAL_TIME_OFFSET ( 1, 0, .AHEAD. ) ;
#43 = VERTEX_POINT ( 'NONE', #125 ) ;
#44 = DESIGN_CONTEXT ( 'detailed design', #133, 'design' ) ;
#45 = MECHANICAL_CONTEXT ( 'NONE', #202, 'mechanical' ) ;
#46 = CARTESIAN_POINT ( 'NONE',  ( 5.586370142149013368E-14, -1.959434878635765131E-15, 16.00000000000000000 ) ) ;
#47 = VERTEX_POINT ( 'NONE', #136 ) ;
#48 = DIRECTION ( 'NONE',  ( -3.491481338843133355E-15, 1.224646799147353207E-16, -1.000000000000000000 ) ) ;
#49 = EDGE_LOOP ( 'NONE', ( #87 ) ) ;
#50 = CC_DESIGN_PERSON_AND_ORGANIZATION_ASSIGNMENT ( #147, #78, ( #181 ) ) ;
#51 = CC_DESIGN_APPROVAL ( #108, ( #181 ) ) ;
#52 = CARTESIAN_POINT ( 'NONE',  ( 1.261780977121069862E-15, -4.425731902575014347E-17, 0.3613884350701264125 ) ) ;
#53 = FACE_OUTER_BOUND ( 'NONE', #152, .T. ) ;
#54 = CIRCLE ( 'NONE', #163, 0.7749999999999953593 ) ;
#55 = DIRECTION ( 'NONE',  ( 0.0000000000000000000, 1.000000000000000000, 0.0000000000000000000 ) ) ;
#56 = COORDINATED_UNIVERSAL_TIME_OFFSET ( 1, 0, .AHEAD. ) ;
#57 = COORDINATED_UNIVERSAL_TIME_OFFSET ( 1, 0, .AHEAD. ) ;
#58 = PRODUCT_DEFINITION_FORMATION_WITH_SPECIFIED_SOURCE ( 'ANY', '', #92, .NOT_KNOWN. ) ;
#59 = EDGE_LOOP ( 'NONE', ( #34 ) ) ;
#60 = PERSON_AND_ORGANIZATION ( #66, #21 ) ;
#61 = CIRCLE ( 'NONE', #121, 0.7749999999999972466 ) ;
#62 = PERSON_AND_ORGANIZATION ( #66, #21 ) ;
#63 = EDGE_LOOP ( 'NONE', ( #86 ) ) ;
#64 = FACE_OUTER_BOUND ( 'NONE', #31, .T. ) ;
#65 = CONICAL_SURFACE ( 'NONE', #98, 0.7749999999999953593, 1.134464013796309123 ) ;
#66 = PERSON ( 'UNSPECIFIED', 'UNSPECIFIED', 'UNSPECIFIED', ('UNSPECIFIED'), ('UNSPECIFIED'), ('UNSPECIFIED') ) ;
#67 = DIRECTION ( 'NONE',  ( 3.491481338843133355E-15, -1.224646799147353207E-16, 1.000000000000000000 ) ) ;
#68 = ADVANCED_FACE ( 'NONE', ( #137 ), #191, .F. ) ;
#69 = CARTESIAN_POINT ( 'NONE',  ( 1.326762908760390423E-13, -4.653657836759941941E-15, 38.00000000000000000 ) ) ;
#70 = DIRECTION ( 'NONE',  ( -4.275831445896958607E-31, -1.000000000000000000, -1.224646799147353207E-16 ) ) ;
#71 = LOCAL_TIME ( 13, 20, 2.000000000000000000, #57 ) ;
#72 = FACE_OUTER_BOUND ( 'NONE', #14, .T. ) ;
#73 = ADVANCED_FACE ( 'NONE', ( #53 ), #199, .T. ) ;
#74 = DATE_AND_TIME ( #40, #172 ) ;
#75 = VERTEX_POINT ( 'NONE', #185 ) ;
#76 = APPROVAL_STATUS ( 'not_yet_approved' ) ;
#77 = DIRECTION ( 'NONE',  ( 4.275831445896958607E-31, 1.000000000000000000, 1.224646799147353207E-16 ) ) ;
#78 = PERSON_AND_ORGANIZATION_ROLE ( 'classification_officer' ) ;
#79 = CARTESIAN_POINT ( 'NONE',  ( 0.0000000000000000000, 0.0000000000000000000, 0.0000000000000000000 ) ) ;
#80 =( GEOMETRIC_REPRESENTATION_CONTEXT ( 3 ) GLOBAL_UNCERTAINTY_ASSIGNED_CONTEXT ( ( #170 ) ) GLOBAL_UNIT_ASSIGNED_CONTEXT ( ( #187, #149, #111 ) ) REPRESENTATION_CONTEXT ( 'NONE', 'WORKASPACE' ) );
#81 = DIRECTION ( 'NONE',  ( 0.0000000000000000000, 0.0000000000000000000, 1.000000000000000000 ) ) ;
#82 = CARTESIAN_POINT ( 'NONE',  ( 1.319779946082704535E-13, 0.7749999999999953593, 37.79999999999999716 ) ) ;
#83 = EDGE_LOOP ( 'NONE', ( #196 ) ) ;
#84 = EDGE_CURVE ( 'NONE', #25, #25, #20, .T. ) ;
#85 = PERSON_AND_ORGANIZATION_ROLE ( 'design_supplier' ) ;
#86 = ORIENTED_EDGE ( 'NONE', *, *, #84, .T. ) ;
#87 = ORIENTED_EDGE ( 'NONE', *, *, #29, .T. ) ;
#88 = ADVANCED_BREP_SHAPE_REPRESENTATION ( '55625', ( #9, #11, #13 ), #80 ) ;
#89 = EDGE_CURVE ( 'NONE', #47, #47, #54, .T. ) ;
#90 = CYLINDRICAL_SURFACE ( 'NONE', #105, 0.7749999999999985789 ) ;
#91 = APPROVAL_PERSON_ORGANIZATION ( #60, #129, #146 ) ;
#92 = PRODUCT ( '55625', '55625', '', ( #45 ) ) ;
#93 = CC_DESIGN_PERSON_AND_ORGANIZATION_ASSIGNMENT ( #173, #123, ( #92 ) ) ;
#94 = SHAPE_DEFINITION_REPRESENTATION ( #4, #88 ) ;
#95 = ADVANCED_FACE ( 'NONE', ( #72 ), #158, .F. ) ;
#96 = PERSON_AND_ORGANIZATION_ROLE ( 'creator' ) ;
#97 = VERTEX_POINT ( 'NONE', #112 ) ;
#98 = AXIS2_PLACEMENT_3D ( 'NONE', #101, #114, #107 ) ;
#99 = SECURITY_CLASSIFICATION_LEVEL ( 'unclassified' ) ;
#100 = PERSON_AND_ORGANIZATION ( #66, #21 ) ;
#101 = CARTESIAN_POINT ( 'NONE',  ( 1.261780977121069862E-15, -4.425731902575014347E-17, 0.3613884350701264125 ) ) ;
#102 = APPROVAL_STATUS ( 'not_yet_approved' ) ;
#103 = EDGE_LOOP ( 'NONE', ( #156 ) ) ;
#104 = CLOSED_SHELL ( 'NONE', ( #18, #203, #73 ) ) ;
#105 = AXIS2_PLACEMENT_3D ( 'NONE', #145, #2, #169 ) ;
#106 = PRODUCT_RELATED_PRODUCT_CATEGORY ( 'detail', '', ( #92 ) ) ;
#107 = DIRECTION ( 'NONE',  ( -4.970141791967089789E-31, -1.000000000000000000, -1.398970545142594677E-16 ) ) ;
#108 = APPROVAL ( #76, 'UNSPECIFIED' ) ;
#109 = AXIS2_PLACEMENT_3D ( 'NONE', #79, #110, #77 ) ;
#110 = DIRECTION ( 'NONE',  ( -3.491481338843133355E-15, 1.224646799147353207E-16, -1.000000000000000000 ) ) ;
#111 =( NAMED_UNIT ( * ) SI_UNIT ( $, .STERADIAN. ) SOLID_ANGLE_UNIT ( ) );
#112 = CARTESIAN_POINT ( 'NONE',  ( 5.586370142149013368E-14, 0.7749999999999953593, 16.00000000000000000 ) ) ;
#113 = DIRECTION ( 'NONE',  ( -3.491481338843133355E-15, 1.224646799147353207E-16, -1.000000000000000000 ) ) ;
#114 = DIRECTION ( 'NONE',  ( 3.491481338843133355E-15, -1.224646799147353207E-16, 1.000000000000000000 ) ) ;
#115 = EDGE_CURVE ( 'NONE', #43, #43, #3, .T. ) ;
#116 = CLOSED_SHELL ( 'NONE', ( #95, #186, #119, #68 ) ) ;
#117 = CONICAL_SURFACE ( 'NONE', #153, 0.5749999999999999556, 0.7853981633974512766 ) ;
#118 = DIRECTION ( 'NONE',  ( -3.491481338843133355E-15, 1.224646799147353207E-16, -1.000000000000000000 ) ) ;
#119 = ADVANCED_FACE ( 'NONE', ( #64, #143 ), #117, .T. ) ;
#120 = FACE_OUTER_BOUND ( 'NONE', #83, .T. ) ;
#121 = AXIS2_PLACEMENT_3D ( 'NONE', #46, #28, #139 ) ;
#122 = CALENDAR_DATE ( 2021, 6, 10 ) ;
#123 = PERSON_AND_ORGANIZATION_ROLE ( 'design_owner' ) ;
#124 = DIRECTION ( 'NONE',  ( 0.0000000000000000000, 1.000000000000000000, 0.0000000000000000000 ) ) ;
#125 = CARTESIAN_POINT ( 'NONE',  ( 1.326762908760390423E-13, 0.5749999999999952927, 38.00000000000000000 ) ) ;
#126 = DATE_AND_TIME ( #41, #71 ) ;
#127 = ORIENTED_EDGE ( 'NONE', *, *, #192, .T. ) ;
#128 = CARTESIAN_POINT ( 'NONE',  ( 1.326762908760390423E-13, -4.653657836759941941E-15, 38.00000000000000000 ) ) ;
#129 = APPROVAL ( #102, 'UNSPECIFIED' ) ;
#130 = LOCAL_TIME ( 13, 20, 2.000000000000000000, #164 ) ;
#131 = CC_DESIGN_DATE_AND_TIME_ASSIGNMENT ( #74, #190, ( #181 ) ) ;
#132 = CARTESIAN_POINT ( 'NONE',  ( 5.586370142149013368E-14, -1.959434878635765131E-15, 16.00000000000000000 ) ) ;
#133 = APPLICATION_CONTEXT ( 'configuration controlled 3d designs of mechanical parts and assemblies' ) ;
#134 = PRODUCT_DEFINITION ( 'UNKNOWN', '', #58, #44 ) ;
#135 = CC_DESIGN_APPROVAL ( #129, ( #58 ) ) ;
#136 = CARTESIAN_POINT ( 'NONE',  ( 1.261780977121070256E-15, 0.7749999999999953593, 0.3613884350701265236 ) ) ;
#137 = FACE_OUTER_BOUND ( 'NONE', #103, .T. ) ;
#138 = DATE_AND_TIME ( #175, #39 ) ;
#139 = DIRECTION ( 'NONE',  ( 0.0000000000000000000, 1.000000000000000000, 0.0000000000000000000 ) ) ;
#140 = PERSON_AND_ORGANIZATION ( #66, #21 ) ;
#141 = CC_DESIGN_PERSON_AND_ORGANIZATION_ASSIGNMENT ( #140, #195, ( #58 ) ) ;
#142 = ORIENTED_EDGE ( 'NONE', *, *, #29, .F. ) ;
#143 = FACE_BOUND ( 'NONE', #59, .T. ) ;
#144 = CC_DESIGN_APPROVAL ( #198, ( #134 ) ) ;
#145 = CARTESIAN_POINT ( 'NONE',  ( 0.0000000000000000000, 0.0000000000000000000, 0.0000000000000000000 ) ) ;
#146 = APPROVAL_ROLE ( '' ) ;
#147 = PERSON_AND_ORGANIZATION ( #66, #21 ) ;
#148 = CARTESIAN_POINT ( 'NONE',  ( 0.0000000000000000000, 0.0000000000000000000, 0.0000000000000000000 ) ) ;
#149 =( NAMED_UNIT ( * ) PLANE_ANGLE_UNIT ( ) SI_UNIT ( $, .RADIAN. ) );
#150 = FACE_OUTER_BOUND ( 'NONE', #49, .T. ) ;
#151 = DIRECTION ( 'NONE',  ( 1.000000000000000000, 0.0000000000000000000, 0.0000000000000000000 ) ) ;
#152 = EDGE_LOOP ( 'NONE', ( #142 ) ) ;
#153 = AXIS2_PLACEMENT_3D ( 'NONE', #128, #157, #55 ) ;
#154 = ORIENTED_EDGE ( 'NONE', *, *, #84, .F. ) ;
#155 = EDGE_LOOP ( 'NONE', ( #32 ) ) ;
#156 = ORIENTED_EDGE ( 'NONE', *, *, #115, .F. ) ;
#157 = DIRECTION ( 'NONE',  ( -3.491481338843133355E-15, 1.224646799147353207E-16, -1.000000000000000000 ) ) ;
#158 = PLANE ( 'NONE',  #184 ) ;
#159 = FACE_OUTER_BOUND ( 'NONE', #63, .T. ) ;
#160 = APPROVAL_STATUS ( 'not_yet_approved' ) ;
#161 = CC_DESIGN_SECURITY_CLASSIFICATION ( #181, ( #58 ) ) ;
#162 = FACE_OUTER_BOUND ( 'NONE', #155, .T. ) ;
#163 = AXIS2_PLACEMENT_3D ( 'NONE', #52, #179, #19 ) ;
#164 = COORDINATED_UNIVERSAL_TIME_OFFSET ( 1, 0, .AHEAD. ) ;
#165 = AXIS2_PLACEMENT_3D ( 'NONE', #132, #113, #124 ) ;
#166 = AXIS2_PLACEMENT_3D ( 'NONE', #69, #180, #182 ) ;
#167 = DIRECTION ( 'NONE',  ( 0.0000000000000000000, 1.000000000000000000, 0.0000000000000000000 ) ) ;
#168 = DIRECTION ( 'NONE',  ( 3.491481338843133355E-15, -1.224646799147353207E-16, 1.000000000000000000 ) ) ;
#169 = DIRECTION ( 'NONE',  ( 4.275831445896958607E-31, 1.000000000000000000, 1.224646799147353207E-16 ) ) ;
#170 = UNCERTAINTY_MEASURE_WITH_UNIT (LENGTH_MEASURE( 1.000000000000000082E-05 ), #187, 'distance_accuracy_value', 'NONE');
#171 = APPLICATION_PROTOCOL_DEFINITION ( 'international standard', 'config_control_design', 1994, #202 ) ;
#172 = LOCAL_TIME ( 13, 20, 2.000000000000000000, #42 ) ;
#173 = PERSON_AND_ORGANIZATION ( #66, #21 ) ;
#174 = APPROVAL_ROLE ( '' ) ;
#175 = CALENDAR_DATE ( 2021, 6, 10 ) ;
#176 = APPROVAL_DATE_TIME ( #36, #108 ) ;
#177 = ORIENTED_EDGE ( 'NONE', *, *, #89, .T. ) ;
#178 = CYLINDRICAL_SURFACE ( 'NONE', #109, 0.7749999999999962474 ) ;
#179 = DIRECTION ( 'NONE',  ( -3.491481338843133355E-15, 1.224646799147353207E-16, -1.000000000000000000 ) ) ;
#180 = DIRECTION ( 'NONE',  ( -3.491481338843133355E-15, 1.224646799147353207E-16, -1.000000000000000000 ) ) ;
#181 = SECURITY_CLASSIFICATION ( '', '', #99 ) ;
#182 = DIRECTION ( 'NONE',  ( 0.0000000000000000000, 1.000000000000000000, 0.0000000000000000000 ) ) ;
#183 = CARTESIAN_POINT ( 'NONE',  ( 5.586370142149013368E-14, 5.811569157814648966E-33, 16.00000000000000000 ) ) ;
#184 = AXIS2_PLACEMENT_3D ( 'NONE', #183, #168, #70 ) ;
#185 = CARTESIAN_POINT ( 'NONE',  ( 5.586370142149013368E-14, 0.7749999999999953593, 16.00000000000000000 ) ) ;
#186 = ADVANCED_FACE ( 'NONE', ( #120, #159 ), #90, .T. ) ;
#187 =( LENGTH_UNIT ( ) NAMED_UNIT ( * ) SI_UNIT ( .MILLI., .METRE. ) );
#188 = CC_DESIGN_PERSON_AND_ORGANIZATION_ASSIGNMENT ( #62, #85, ( #58 ) ) ;
#189 = APPROVAL_PERSON_ORGANIZATION ( #100, #198, #23 ) ;
#190 = DATE_TIME_ROLE ( 'classification_date' ) ;
#191 = PLANE ( 'NONE',  #17 ) ;
#192 = EDGE_CURVE ( 'NONE', #97, #97, #1, .T. ) ;
#193 = DATE_TIME_ROLE ( 'creation_date' ) ;
#194 = CARTESIAN_POINT ( 'NONE',  ( 1.326762908760390423E-13, 4.311809375152770831E-33, 38.00000000000000000 ) ) ;
#195 = PERSON_AND_ORGANIZATION_ROLE ( 'creator' ) ;
#196 = ORIENTED_EDGE ( 'NONE', *, *, #192, .F. ) ;
#197 = APPROVAL_PERSON_ORGANIZATION ( #8, #108, #174 ) ;
#198 = APPROVAL ( #160, 'UNSPECIFIED' ) ;
#199 = PLANE ( 'NONE',  #201 ) ;
#200 = FACE_OUTER_BOUND ( 'NONE', #15, .T. ) ;
#201 = AXIS2_PLACEMENT_3D ( 'NONE', #16, #67, #35 ) ;
#202 = APPLICATION_CONTEXT ( 'configuration controlled 3d designs of mechanical parts and assemblies' ) ;
#203 = ADVANCED_FACE ( 'NONE', ( #162, #150 ), #178, .T. ) ;
ENDSEC;
END-ISO-10303-21;
