ISO-10303-21;
HEADER;
FILE_DESCRIPTION (( 'STEP AP203' ),
    '1' );
FILE_NAME ('55623.step',
    '2021-10-06T11:20:00',
    ( '' ),
    ( '' ),
    'SwSTEP 2.0',
    'SolidWorks 2019',
    '' );
FILE_SCHEMA (( 'CONFIG_CONTROL_DESIGN' ));
ENDSEC;

DATA;
#1 = CC_DESIGN_APPROVAL ( #129, ( #67 ) ) ;
#2 = APPLICATION_CONTEXT ( 'configuration controlled 3d designs of mechanical parts and assemblies' ) ;
#3 = DIRECTION ( 'NONE',  ( -3.491481338843133355E-15, 1.224646799147353207E-16, -1.000000000000000000 ) ) ;
#4 = CARTESIAN_POINT ( 'NONE',  ( 1.319779946082704535E-13, 0.7499999999999953371, 37.79999999999999716 ) ) ;
#5 = AXIS2_PLACEMENT_3D ( 'NONE', #25, #87, #7 ) ;
#6 = FACE_OUTER_BOUND ( 'NONE', #48, .T. ) ;
#7 = DIRECTION ( 'NONE',  ( -4.275831445896958607E-31, -1.000000000000000000, -1.224646799147353207E-16 ) ) ;
#8 = DIRECTION ( 'NONE',  ( 0.0000000000000000000, 1.000000000000000000, 0.0000000000000000000 ) ) ;
#9 = CALENDAR_DATE ( 2021, 6, 10 ) ;
#10 = LOCAL_TIME ( 13, 20, 0.0000000000000000000, #65 ) ;
#11 = MECHANICAL_CONTEXT ( 'NONE', #35, 'mechanical' ) ;
#12 = CIRCLE ( 'NONE', #157, 0.7500000000000000000 ) ;
#13 = PERSON_AND_ORGANIZATION ( #116, #188 ) ;
#14 = CARTESIAN_POINT ( 'NONE',  ( 1.326762908760390423E-13, -4.653657836759941941E-15, 38.00000000000000000 ) ) ;
#15 = AXIS2_PLACEMENT_3D ( 'NONE', #96, #85, #8 ) ;
#16 = EDGE_LOOP ( 'NONE', ( #94 ) ) ;
#17 = APPROVAL ( #158, 'UNSPECIFIED' ) ;
#18 = DIRECTION ( 'NONE',  ( -3.491481338843133355E-15, 1.224646799147353207E-16, -1.000000000000000000 ) ) ;
#19 = DIRECTION ( 'NONE',  ( 3.491481338843133355E-15, -1.224646799147353207E-16, 1.000000000000000000 ) ) ;
#20 = AXIS2_PLACEMENT_3D ( 'NONE', #166, #121, #195 ) ;
#21 = VERTEX_POINT ( 'NONE', #4 ) ;
#22 = CC_DESIGN_SECURITY_CLASSIFICATION ( #27, ( #67 ) ) ;
#23 = DIRECTION ( 'NONE',  ( -5.135813185032661055E-31, -1.000000000000000000, -1.445602896647348284E-16 ) ) ;
#24 = EDGE_CURVE ( 'NONE', #192, #192, #172, .T. ) ;
#25 = CARTESIAN_POINT ( 'NONE',  ( 5.586370142149013368E-14, 5.624099184981917449E-33, 16.00000000000000000 ) ) ;
#26 = AXIS2_PLACEMENT_3D ( 'NONE', #167, #18, #170 ) ;
#27 = SECURITY_CLASSIFICATION ( '', '', #86 ) ;
#28 = PRODUCT_DEFINITION_SHAPE ( 'NONE', 'NONE',  #103 ) ;
#29 = APPROVAL_DATE_TIME ( #174, #129 ) ;
#30 = DIRECTION ( 'NONE',  ( 5.135813185032661055E-31, 1.000000000000000000, 1.445602896647348284E-16 ) ) ;
#31 = LOCAL_TIME ( 13, 20, 0.0000000000000000000, #186 ) ;
#32 = EDGE_LOOP ( 'NONE', ( #34 ) ) ;
#33 = CARTESIAN_POINT ( 'NONE',  ( 0.0000000000000000000, 0.0000000000000000000, 0.0000000000000000000 ) ) ;
#34 = ORIENTED_EDGE ( 'NONE', *, *, #24, .T. ) ;
#35 = APPLICATION_CONTEXT ( 'configuration controlled 3d designs of mechanical parts and assemblies' ) ;
#36 = VERTEX_POINT ( 'NONE', #82 ) ;
#37 = DIRECTION ( 'NONE',  ( 0.0000000000000000000, 1.000000000000000000, 0.0000000000000000000 ) ) ;
#38 = LOCAL_TIME ( 13, 20, 0.0000000000000000000, #93 ) ;
#39 = DIRECTION ( 'NONE',  ( -4.275831445896958607E-31, -1.000000000000000000, -1.224646799147353207E-16 ) ) ;
#40 = DESIGN_CONTEXT ( 'detailed design', #2, 'design' ) ;
#41 = DIRECTION ( 'NONE',  ( 3.491481338843133355E-15, -1.224646799147353207E-16, 1.000000000000000000 ) ) ;
#42 = ADVANCED_BREP_SHAPE_REPRESENTATION ( '55623', ( #201, #141, #102 ), #77 ) ;
#43 = LOCAL_TIME ( 13, 20, 0.0000000000000000000, #46 ) ;
#44 = LOCAL_TIME ( 13, 20, 0.0000000000000000000, #101 ) ;
#45 = PERSON_AND_ORGANIZATION ( #116, #188 ) ;
#46 = COORDINATED_UNIVERSAL_TIME_OFFSET ( 1, 0, .AHEAD. ) ;
#47 = CALENDAR_DATE ( 2021, 6, 10 ) ;
#48 = EDGE_LOOP ( 'NONE', ( #108 ) ) ;
#49 = APPROVAL_PERSON_ORGANIZATION ( #45, #120, #147 ) ;
#50 = EDGE_CURVE ( 'NONE', #155, #155, #153, .T. ) ;
#51 = PERSON_AND_ORGANIZATION_ROLE ( 'classification_officer' ) ;
#52 = FACE_BOUND ( 'NONE', #176, .T. ) ;
#53 = FACE_OUTER_BOUND ( 'NONE', #178, .T. ) ;
#54 = CC_DESIGN_PERSON_AND_ORGANIZATION_ASSIGNMENT ( #13, #95, ( #67 ) ) ;
#55 =( LENGTH_UNIT ( ) NAMED_UNIT ( * ) SI_UNIT ( .MILLI., .METRE. ) );
#56 = PLANE ( 'NONE',  #20 ) ;
#57 = PRODUCT_RELATED_PRODUCT_CATEGORY ( 'detail', '', ( #189 ) ) ;
#58 =( NAMED_UNIT ( * ) SI_UNIT ( $, .STERADIAN. ) SOLID_ANGLE_UNIT ( ) );
#59 = ADVANCED_FACE ( 'NONE', ( #68 ), #193, .T. ) ;
#60 = DATE_AND_TIME ( #190, #38 ) ;
#61 = ORIENTED_EDGE ( 'NONE', *, *, #179, .F. ) ;
#62 = DIRECTION ( 'NONE',  ( 0.0000000000000000000, 1.000000000000000000, 0.0000000000000000000 ) ) ;
#63 = APPROVAL_STATUS ( 'not_yet_approved' ) ;
#64 = EDGE_LOOP ( 'NONE', ( #165 ) ) ;
#65 = COORDINATED_UNIVERSAL_TIME_OFFSET ( 1, 0, .AHEAD. ) ;
#66 = VERTEX_POINT ( 'NONE', #84 ) ;
#67 = PRODUCT_DEFINITION_FORMATION_WITH_SPECIFIED_SOURCE ( 'ANY', '', #189, .NOT_KNOWN. ) ;
#68 = FACE_OUTER_BOUND ( 'NONE', #150, .T. ) ;
#69 = PERSON_AND_ORGANIZATION ( #116, #188 ) ;
#70 = CYLINDRICAL_SURFACE ( 'NONE', #197, 0.7499999999999986677 ) ;
#71 = PERSON_AND_ORGANIZATION_ROLE ( 'design_supplier' ) ;
#72 = CARTESIAN_POINT ( 'NONE',  ( 1.221078364955874289E-15, 0.7499999999999953371, 0.3497307436162515049 ) ) ;
#73 = DIRECTION ( 'NONE',  ( 4.275831445896958607E-31, 1.000000000000000000, 1.224646799147353207E-16 ) ) ;
#74 = DATE_AND_TIME ( #9, #43 ) ;
#75 = APPROVAL_ROLE ( '' ) ;
#76 = AXIS2_PLACEMENT_3D ( 'NONE', #154, #194, #97 ) ;
#77 =( GEOMETRIC_REPRESENTATION_CONTEXT ( 3 ) GLOBAL_UNCERTAINTY_ASSIGNED_CONTEXT ( ( #113 ) ) GLOBAL_UNIT_ASSIGNED_CONTEXT ( ( #55, #183, #58 ) ) REPRESENTATION_CONTEXT ( 'NONE', 'WORKASPACE' ) );
#78 = CLOSED_SHELL ( 'NONE', ( #191, #136, #115, #185 ) ) ;
#79 = CC_DESIGN_PERSON_AND_ORGANIZATION_ASSIGNMENT ( #69, #51, ( #27 ) ) ;
#80 = ORIENTED_EDGE ( 'NONE', *, *, #24, .F. ) ;
#81 = FACE_OUTER_BOUND ( 'NONE', #16, .T. ) ;
#82 = CARTESIAN_POINT ( 'NONE',  ( 5.586370142149013368E-14, 0.7499999999999953371, 16.00000000000000000 ) ) ;
#83 = CONICAL_SURFACE ( 'NONE', #26, 0.5500000000000000444, 0.7853981633974512766 ) ;
#84 = CARTESIAN_POINT ( 'NONE',  ( 5.586370142149013368E-14, 0.7499999999999953371, 16.00000000000000000 ) ) ;
#85 = DIRECTION ( 'NONE',  ( -3.491481338843133355E-15, 1.224646799147353207E-16, -1.000000000000000000 ) ) ;
#86 = SECURITY_CLASSIFICATION_LEVEL ( 'unclassified' ) ;
#87 = DIRECTION ( 'NONE',  ( 3.491481338843133355E-15, -1.224646799147353207E-16, 1.000000000000000000 ) ) ;
#88 = PERSON_AND_ORGANIZATION_ROLE ( 'creator' ) ;
#89 = APPLICATION_PROTOCOL_DEFINITION ( 'international standard', 'config_control_design', 1994, #2 ) ;
#90 = DIRECTION ( 'NONE',  ( -3.491481338843133355E-15, 1.224646799147353207E-16, -1.000000000000000000 ) ) ;
#91 = CC_DESIGN_APPROVAL ( #17, ( #27 ) ) ;
#92 = DIRECTION ( 'NONE',  ( 0.0000000000000000000, 0.0000000000000000000, 1.000000000000000000 ) ) ;
#93 = COORDINATED_UNIVERSAL_TIME_OFFSET ( 1, 0, .AHEAD. ) ;
#94 = ORIENTED_EDGE ( 'NONE', *, *, #179, .T. ) ;
#95 = PERSON_AND_ORGANIZATION_ROLE ( 'creator' ) ;
#96 = CARTESIAN_POINT ( 'NONE',  ( 5.586370142149013368E-14, -1.959434878635765131E-15, 16.00000000000000000 ) ) ;
#97 = DIRECTION ( 'NONE',  ( 0.0000000000000000000, 1.000000000000000000, 0.0000000000000000000 ) ) ;
#98 = FACE_OUTER_BOUND ( 'NONE', #32, .T. ) ;
#99 = DIRECTION ( 'NONE',  ( -3.491481338843133355E-15, 1.224646799147353207E-16, -1.000000000000000000 ) ) ;
#100 = AXIS2_PLACEMENT_3D ( 'NONE', #182, #19, #39 ) ;
#101 = COORDINATED_UNIVERSAL_TIME_OFFSET ( 1, 0, .AHEAD. ) ;
#102 = AXIS2_PLACEMENT_3D ( 'NONE', #33, #92, #177 ) ;
#103 = PRODUCT_DEFINITION ( 'UNKNOWN', '', #67, #40 ) ;
#104 = PERSON_AND_ORGANIZATION ( #116, #188 ) ;
#105 = APPROVAL_STATUS ( 'not_yet_approved' ) ;
#106 = ORIENTED_EDGE ( 'NONE', *, *, #162, .F. ) ;
#107 = PERSON_AND_ORGANIZATION ( #116, #188 ) ;
#108 = ORIENTED_EDGE ( 'NONE', *, *, #173, .T. ) ;
#109 = CIRCLE ( 'NONE', #76, 0.7499999999999973355 ) ;
#110 = APPLICATION_PROTOCOL_DEFINITION ( 'international standard', 'config_control_design', 1994, #35 ) ;
#111 = CALENDAR_DATE ( 2021, 6, 10 ) ;
#112 = ORIENTED_EDGE ( 'NONE', *, *, #162, .T. ) ;
#113 = UNCERTAINTY_MEASURE_WITH_UNIT (LENGTH_MEASURE( 1.000000000000000082E-05 ), #55, 'distance_accuracy_value', 'NONE');
#114 = AXIS2_PLACEMENT_3D ( 'NONE', #14, #90, #62 ) ;
#115 = ADVANCED_FACE ( 'NONE', ( #130, #52 ), #83, .T. ) ;
#116 = PERSON ( 'UNSPECIFIED', 'UNSPECIFIED', 'UNSPECIFIED', ('UNSPECIFIED'), ('UNSPECIFIED'), ('UNSPECIFIED') ) ;
#117 = CARTESIAN_POINT ( 'NONE',  ( 0.0000000000000000000, 0.0000000000000000000, 0.0000000000000000000 ) ) ;
#118 = CYLINDRICAL_SURFACE ( 'NONE', #143, 0.7499999999999963363 ) ;
#119 = FACE_OUTER_BOUND ( 'NONE', #125, .T. ) ;
#120 = APPROVAL ( #105, 'UNSPECIFIED' ) ;
#121 = DIRECTION ( 'NONE',  ( -3.491481338843133355E-15, 1.224646799147353207E-16, -1.000000000000000000 ) ) ;
#122 = CC_DESIGN_DATE_AND_TIME_ASSIGNMENT ( #199, #139, ( #27 ) ) ;
#123 = CLOSED_SHELL ( 'NONE', ( #156, #145, #59 ) ) ;
#124 = APPROVAL_ROLE ( '' ) ;
#125 = EDGE_LOOP ( 'NONE', ( #144 ) ) ;
#126 = CC_DESIGN_PERSON_AND_ORGANIZATION_ASSIGNMENT ( #107, #142, ( #189 ) ) ;
#127 = DATE_TIME_ROLE ( 'creation_date' ) ;
#128 = CONICAL_SURFACE ( 'NONE', #171, 0.7499999999999953371, 1.134464013796309123 ) ;
#129 = APPROVAL ( #63, 'UNSPECIFIED' ) ;
#130 = FACE_OUTER_BOUND ( 'NONE', #203, .T. ) ;
#131 = CIRCLE ( 'NONE', #15, 0.7499999999999973355 ) ;
#132 = DIRECTION ( 'NONE',  ( 4.275831445896959482E-31, 1.000000000000000000, 1.224646799147353207E-16 ) ) ;
#133 = CARTESIAN_POINT ( 'NONE',  ( 1.319779946082704535E-13, -4.629164900776995227E-15, 37.79999999999999716 ) ) ;
#134 = APPROVAL_PERSON_ORGANIZATION ( #104, #129, #124 ) ;
#135 = FACE_OUTER_BOUND ( 'NONE', #148, .T. ) ;
#136 = ADVANCED_FACE ( 'NONE', ( #119, #135 ), #70, .T. ) ;
#137 = APPROVAL_DATE_TIME ( #74, #17 ) ;
#138 = CALENDAR_DATE ( 2021, 6, 10 ) ;
#139 = DATE_TIME_ROLE ( 'classification_date' ) ;
#140 = CC_DESIGN_PERSON_AND_ORGANIZATION_ASSIGNMENT ( #187, #88, ( #103 ) ) ;
#141 = MANIFOLD_SOLID_BREP ( 'Corps-Déplacer/Copier1[2]', #123 ) ;
#142 = PERSON_AND_ORGANIZATION_ROLE ( 'design_owner' ) ;
#143 = AXIS2_PLACEMENT_3D ( 'NONE', #196, #184, #73 ) ;
#144 = ORIENTED_EDGE ( 'NONE', *, *, #173, .F. ) ;
#145 = ADVANCED_FACE ( 'NONE', ( #53, #81 ), #118, .T. ) ;
#146 = DATE_AND_TIME ( #111, #10 ) ;
#147 = APPROVAL_ROLE ( '' ) ;
#148 = EDGE_LOOP ( 'NONE', ( #112 ) ) ;
#149 = CC_DESIGN_PERSON_AND_ORGANIZATION_ASSIGNMENT ( #181, #71, ( #67 ) ) ;
#150 = EDGE_LOOP ( 'NONE', ( #61 ) ) ;
#151 = DIRECTION ( 'NONE',  ( -3.491481338843133355E-15, 1.224646799147353207E-16, -1.000000000000000000 ) ) ;
#152 = FACE_OUTER_BOUND ( 'NONE', #64, .T. ) ;
#153 = CIRCLE ( 'NONE', #114, 0.5500000000000000444 ) ;
#154 = CARTESIAN_POINT ( 'NONE',  ( 5.586370142149013368E-14, -1.959434878635765131E-15, 16.00000000000000000 ) ) ;
#155 = VERTEX_POINT ( 'NONE', #168 ) ;
#156 = ADVANCED_FACE ( 'NONE', ( #98 ), #128, .T. ) ;
#157 = AXIS2_PLACEMENT_3D ( 'NONE', #133, #151, #37 ) ;
#158 = APPROVAL_STATUS ( 'not_yet_approved' ) ;
#159 = CC_DESIGN_DATE_AND_TIME_ASSIGNMENT ( #60, #127, ( #103 ) ) ;
#160 = SHAPE_DEFINITION_REPRESENTATION ( #28, #42 ) ;
#161 = CC_DESIGN_APPROVAL ( #120, ( #103 ) ) ;
#162 = EDGE_CURVE ( 'NONE', #21, #21, #12, .T. ) ;
#163 = ORIENTED_EDGE ( 'NONE', *, *, #50, .T. ) ;
#164 = APPROVAL_PERSON_ORGANIZATION ( #198, #17, #75 ) ;
#165 = ORIENTED_EDGE ( 'NONE', *, *, #50, .F. ) ;
#166 = CARTESIAN_POINT ( 'NONE',  ( 1.326762908760390423E-13, 4.124339402320038630E-33, 38.00000000000000000 ) ) ;
#167 = CARTESIAN_POINT ( 'NONE',  ( 1.326762908760390423E-13, -4.653657836759941941E-15, 38.00000000000000000 ) ) ;
#168 = CARTESIAN_POINT ( 'NONE',  ( 1.326762908760390423E-13, 0.5499999999999953815, 38.00000000000000000 ) ) ;
#169 = CARTESIAN_POINT ( 'NONE',  ( 1.221078364955873894E-15, -4.282966357330658628E-17, 0.3497307436162513938 ) ) ;
#170 = DIRECTION ( 'NONE',  ( 0.0000000000000000000, 1.000000000000000000, 0.0000000000000000000 ) ) ;
#171 = AXIS2_PLACEMENT_3D ( 'NONE', #169, #41, #23 ) ;
#172 = CIRCLE ( 'NONE', #200, 0.7499999999999953371 ) ;
#173 = EDGE_CURVE ( 'NONE', #36, #36, #131, .T. ) ;
#174 = DATE_AND_TIME ( #47, #31 ) ;
#175 = CARTESIAN_POINT ( 'NONE',  ( 1.221078364955873894E-15, -4.282966357330658628E-17, 0.3497307436162513938 ) ) ;
#176 = EDGE_LOOP ( 'NONE', ( #163 ) ) ;
#177 = DIRECTION ( 'NONE',  ( 1.000000000000000000, 0.0000000000000000000, 0.0000000000000000000 ) ) ;
#178 = EDGE_LOOP ( 'NONE', ( #80 ) ) ;
#179 = EDGE_CURVE ( 'NONE', #66, #66, #109, .T. ) ;
#180 = PLANE ( 'NONE',  #5 ) ;
#181 = PERSON_AND_ORGANIZATION ( #116, #188 ) ;
#182 = CARTESIAN_POINT ( 'NONE',  ( 5.586370142149013368E-14, 5.624099184981917449E-33, 16.00000000000000000 ) ) ;
#183 =( NAMED_UNIT ( * ) PLANE_ANGLE_UNIT ( ) SI_UNIT ( $, .RADIAN. ) );
#184 = DIRECTION ( 'NONE',  ( -3.491481338843133355E-15, 1.224646799147353207E-16, -1.000000000000000000 ) ) ;
#185 = ADVANCED_FACE ( 'NONE', ( #152 ), #56, .F. ) ;
#186 = COORDINATED_UNIVERSAL_TIME_OFFSET ( 1, 0, .AHEAD. ) ;
#187 = PERSON_AND_ORGANIZATION ( #116, #188 ) ;
#188 = ORGANIZATION ( 'UNSPECIFIED', 'UNSPECIFIED', '' ) ;
#189 = PRODUCT ( '55623', '55623', '', ( #11 ) ) ;
#190 = CALENDAR_DATE ( 2021, 6, 10 ) ;
#191 = ADVANCED_FACE ( 'NONE', ( #6 ), #180, .F. ) ;
#192 = VERTEX_POINT ( 'NONE', #72 ) ;
#193 = PLANE ( 'NONE',  #100 ) ;
#194 = DIRECTION ( 'NONE',  ( -3.491481338843133355E-15, 1.224646799147353207E-16, -1.000000000000000000 ) ) ;
#195 = DIRECTION ( 'NONE',  ( 4.275831445896958607E-31, 1.000000000000000000, 1.224646799147353207E-16 ) ) ;
#196 = CARTESIAN_POINT ( 'NONE',  ( 0.0000000000000000000, 0.0000000000000000000, 0.0000000000000000000 ) ) ;
#197 = AXIS2_PLACEMENT_3D ( 'NONE', #117, #99, #132 ) ;
#198 = PERSON_AND_ORGANIZATION ( #116, #188 ) ;
#199 = DATE_AND_TIME ( #138, #44 ) ;
#200 = AXIS2_PLACEMENT_3D ( 'NONE', #175, #3, #30 ) ;
#201 = MANIFOLD_SOLID_BREP ( 'Corps-Déplacer/Copier1[1]', #78 ) ;
#202 = APPROVAL_DATE_TIME ( #146, #120 ) ;
#203 = EDGE_LOOP ( 'NONE', ( #106 ) ) ;
ENDSEC;
END-ISO-10303-21;
