ISO-10303-21;
HEADER;
FILE_DESCRIPTION (( 'STEP AP203' ),
    '1' );
FILE_NAME ('55621.step',
    '2021-10-06T11:19:59',
    ( '' ),
    ( '' ),
    'SwSTEP 2.0',
    'SolidWorks 2019',
    '' );
FILE_SCHEMA (( 'CONFIG_CONTROL_DESIGN' ));
ENDSEC;

DATA;
#1 = PLANE ( 'NONE',  #167 ) ;
#2 = CC_DESIGN_PERSON_AND_ORGANIZATION_ASSIGNMENT ( #88, #53, ( #190 ) ) ;
#3 = PERSON_AND_ORGANIZATION_ROLE ( 'design_supplier' ) ;
#4 = PERSON_AND_ORGANIZATION_ROLE ( 'creator' ) ;
#5 = DATE_AND_TIME ( #174, #7 ) ;
#6 = CALENDAR_DATE ( 2021, 6, 10 ) ;
#7 = LOCAL_TIME ( 13, 19, 59.00000000000000000, #187 ) ;
#8 = PRODUCT_DEFINITION_SHAPE ( 'NONE', 'NONE',  #190 ) ;
#9 = PRODUCT_RELATED_PRODUCT_CATEGORY ( 'detail', '', ( #116 ) ) ;
#10 = DIRECTION ( 'NONE',  ( -3.491481338843133355E-15, 1.224646799147353207E-16, -1.000000000000000000 ) ) ;
#11 = CC_DESIGN_PERSON_AND_ORGANIZATION_ASSIGNMENT ( #148, #4, ( #101 ) ) ;
#12 = CARTESIAN_POINT ( 'NONE',  ( 1.326762908760390423E-13, -4.653657836759941941E-15, 38.00000000000000000 ) ) ;
#13 = DIRECTION ( 'NONE',  ( 0.0000000000000000000, 1.000000000000000000, 0.0000000000000000000 ) ) ;
#14 = DIRECTION ( 'NONE',  ( -3.491481338843133355E-15, 1.224646799147353207E-16, -1.000000000000000000 ) ) ;
#15 = APPROVAL_PERSON_ORGANIZATION ( #84, #48, #189 ) ;
#16 = DIRECTION ( 'NONE',  ( 4.275831445896958607E-31, 1.000000000000000000, 1.224646799147353207E-16 ) ) ;
#17 = VERTEX_POINT ( 'NONE', #81 ) ;
#18 =( LENGTH_UNIT ( ) NAMED_UNIT ( * ) SI_UNIT ( .MILLI., .METRE. ) );
#19 =( GEOMETRIC_REPRESENTATION_CONTEXT ( 3 ) GLOBAL_UNCERTAINTY_ASSIGNED_CONTEXT ( ( #163 ) ) GLOBAL_UNIT_ASSIGNED_CONTEXT ( ( #18, #33, #64 ) ) REPRESENTATION_CONTEXT ( 'NONE', 'WORKASPACE' ) );
#20 = CC_DESIGN_PERSON_AND_ORGANIZATION_ASSIGNMENT ( #94, #118, ( #116 ) ) ;
#21 = CARTESIAN_POINT ( 'NONE',  ( 5.586370142149013368E-14, 5.436629212149184564E-33, 16.00000000000000000 ) ) ;
#22 = DATE_TIME_ROLE ( 'classification_date' ) ;
#23 = APPROVAL_ROLE ( '' ) ;
#24 = APPROVAL_DATE_TIME ( #162, #48 ) ;
#25 = AXIS2_PLACEMENT_3D ( 'NONE', #171, #14, #65 ) ;
#26 = CARTESIAN_POINT ( 'NONE',  ( 5.586370142149013368E-14, -1.959434878635765131E-15, 16.00000000000000000 ) ) ;
#27 = ORIENTED_EDGE ( 'NONE', *, *, #58, .F. ) ;
#28 = AXIS2_PLACEMENT_3D ( 'NONE', #21, #96, #147 ) ;
#29 = EDGE_LOOP ( 'NONE', ( #182 ) ) ;
#30 = CARTESIAN_POINT ( 'NONE',  ( 1.326762908760390423E-13, -4.653657836759941941E-15, 38.00000000000000000 ) ) ;
#31 = DIRECTION ( 'NONE',  ( 3.491481338843133355E-15, -1.224646799147353207E-16, 1.000000000000000000 ) ) ;
#32 = DIRECTION ( 'NONE',  ( -5.312910191413098851E-31, -1.000000000000000000, -1.495451272393808910E-16 ) ) ;
#33 =( NAMED_UNIT ( * ) PLANE_ANGLE_UNIT ( ) SI_UNIT ( $, .RADIAN. ) );
#34 = CC_DESIGN_SECURITY_CLASSIFICATION ( #120, ( #101 ) ) ;
#35 = ADVANCED_FACE ( 'NONE', ( #42, #90 ), #168, .T. ) ;
#36 = DATE_AND_TIME ( #132, #71 ) ;
#37 = PERSON ( 'UNSPECIFIED', 'UNSPECIFIED', 'UNSPECIFIED', ('UNSPECIFIED'), ('UNSPECIFIED'), ('UNSPECIFIED') ) ;
#38 = AXIS2_PLACEMENT_3D ( 'NONE', #83, #63, #49 ) ;
#39 = COORDINATED_UNIVERSAL_TIME_OFFSET ( 1, 0, .AHEAD. ) ;
#40 = COORDINATED_UNIVERSAL_TIME_OFFSET ( 1, 0, .AHEAD. ) ;
#41 = CONICAL_SURFACE ( 'NONE', #129, 0.5250000000000000222, 0.7853981633974512766 ) ;
#42 = FACE_OUTER_BOUND ( 'NONE', #180, .T. ) ;
#43 = DIRECTION ( 'NONE',  ( 0.0000000000000000000, 1.000000000000000000, 0.0000000000000000000 ) ) ;
#44 = CC_DESIGN_DATE_AND_TIME_ASSIGNMENT ( #36, #22, ( #120 ) ) ;
#45 = ORIENTED_EDGE ( 'NONE', *, *, #80, .T. ) ;
#46 = CIRCLE ( 'NONE', #87, 0.7249999999999972022 ) ;
#47 = CARTESIAN_POINT ( 'NONE',  ( 0.0000000000000000000, 0.0000000000000000000, 0.0000000000000000000 ) ) ;
#48 = APPROVAL ( #133, 'UNSPECIFIED' ) ;
#49 = DIRECTION ( 'NONE',  ( 1.000000000000000000, 0.0000000000000000000, 0.0000000000000000000 ) ) ;
#50 = LOCAL_TIME ( 13, 19, 59.00000000000000000, #55 ) ;
#51 = CARTESIAN_POINT ( 'NONE',  ( 1.326762908760390423E-13, 0.5249999999999953593, 38.00000000000000000 ) ) ;
#52 = CARTESIAN_POINT ( 'NONE',  ( 1.180375752790678124E-15, 0.7249999999999953149, 0.3380730521623763196 ) ) ;
#53 = PERSON_AND_ORGANIZATION_ROLE ( 'creator' ) ;
#54 = APPROVAL_DATE_TIME ( #5, #185 ) ;
#55 = COORDINATED_UNIVERSAL_TIME_OFFSET ( 1, 0, .AHEAD. ) ;
#56 = ADVANCED_FACE ( 'NONE', ( #76, #151 ), #41, .T. ) ;
#57 = CARTESIAN_POINT ( 'NONE',  ( 5.586370142149013368E-14, -1.959434878635765131E-15, 16.00000000000000000 ) ) ;
#58 = EDGE_CURVE ( 'NONE', #172, #172, #68, .T. ) ;
#59 = ORIENTED_EDGE ( 'NONE', *, *, #161, .F. ) ;
#60 = DIRECTION ( 'NONE',  ( -3.491481338843133355E-15, 1.224646799147353207E-16, -1.000000000000000000 ) ) ;
#61 = DIRECTION ( 'NONE',  ( -3.491481338843133355E-15, 1.224646799147353207E-16, -1.000000000000000000 ) ) ;
#62 = EDGE_CURVE ( 'NONE', #156, #156, #184, .T. ) ;
#63 = DIRECTION ( 'NONE',  ( 0.0000000000000000000, 0.0000000000000000000, 1.000000000000000000 ) ) ;
#64 =( NAMED_UNIT ( * ) SI_UNIT ( $, .STERADIAN. ) SOLID_ANGLE_UNIT ( ) );
#65 = DIRECTION ( 'NONE',  ( 5.312910191413098851E-31, 1.000000000000000000, 1.495451272393808910E-16 ) ) ;
#66 = APPROVAL_STATUS ( 'not_yet_approved' ) ;
#67 = EDGE_CURVE ( 'NONE', #108, #108, #109, .T. ) ;
#68 = CIRCLE ( 'NONE', #186, 0.7249999999999972022 ) ;
#69 = PERSON_AND_ORGANIZATION_ROLE ( 'classification_officer' ) ;
#70 = APPLICATION_PROTOCOL_DEFINITION ( 'international standard', 'config_control_design', 1994, #122 ) ;
#71 = LOCAL_TIME ( 13, 19, 59.00000000000000000, #40 ) ;
#72 = EDGE_LOOP ( 'NONE', ( #199 ) ) ;
#73 = ADVANCED_FACE ( 'NONE', ( #93 ), #137, .T. ) ;
#74 = DIRECTION ( 'NONE',  ( 0.0000000000000000000, 1.000000000000000000, 0.0000000000000000000 ) ) ;
#75 = DIRECTION ( 'NONE',  ( 0.0000000000000000000, 1.000000000000000000, 0.0000000000000000000 ) ) ;
#76 = FACE_OUTER_BOUND ( 'NONE', #104, .T. ) ;
#77 = EDGE_LOOP ( 'NONE', ( #153 ) ) ;
#78 = CYLINDRICAL_SURFACE ( 'NONE', #113, 0.7249999999999986455 ) ;
#79 = APPROVAL_PERSON_ORGANIZATION ( #159, #136, #23 ) ;
#80 = EDGE_CURVE ( 'NONE', #17, #17, #46, .T. ) ;
#81 = CARTESIAN_POINT ( 'NONE',  ( 5.586370142149013368E-14, 0.7249999999999953149, 16.00000000000000000 ) ) ;
#82 = AXIS2_PLACEMENT_3D ( 'NONE', #192, #194, #139 ) ;
#83 = CARTESIAN_POINT ( 'NONE',  ( 0.0000000000000000000, 0.0000000000000000000, 0.0000000000000000000 ) ) ;
#84 = PERSON_AND_ORGANIZATION ( #37, #150 ) ;
#85 = CC_DESIGN_PERSON_AND_ORGANIZATION_ASSIGNMENT ( #114, #3, ( #101 ) ) ;
#86 = COORDINATED_UNIVERSAL_TIME_OFFSET ( 1, 0, .AHEAD. ) ;
#87 = AXIS2_PLACEMENT_3D ( 'NONE', #57, #61, #169 ) ;
#88 = PERSON_AND_ORGANIZATION ( #37, #150 ) ;
#89 = ORIENTED_EDGE ( 'NONE', *, *, #62, .F. ) ;
#90 = FACE_OUTER_BOUND ( 'NONE', #106, .T. ) ;
#91 = APPLICATION_CONTEXT ( 'configuration controlled 3d designs of mechanical parts and assemblies' ) ;
#92 = ADVANCED_FACE ( 'NONE', ( #99 ), #105, .T. ) ;
#93 = FACE_OUTER_BOUND ( 'NONE', #181, .T. ) ;
#94 = PERSON_AND_ORGANIZATION ( #37, #150 ) ;
#95 = CLOSED_SHELL ( 'NONE', ( #92, #35, #73 ) ) ;
#96 = DIRECTION ( 'NONE',  ( 3.491481338843133355E-15, -1.224646799147353207E-16, 1.000000000000000000 ) ) ;
#97 = CARTESIAN_POINT ( 'NONE',  ( 5.586370142149013368E-14, 0.7249999999999953149, 16.00000000000000000 ) ) ;
#98 = FACE_OUTER_BOUND ( 'NONE', #126, .T. ) ;
#99 = FACE_OUTER_BOUND ( 'NONE', #142, .T. ) ;
#100 = SECURITY_CLASSIFICATION_LEVEL ( 'unclassified' ) ;
#101 = PRODUCT_DEFINITION_FORMATION_WITH_SPECIFIED_SOURCE ( 'ANY', '', #116, .NOT_KNOWN. ) ;
#102 = ADVANCED_BREP_SHAPE_REPRESENTATION ( '55621', ( #140, #138, #38 ), #19 ) ;
#103 = DIRECTION ( 'NONE',  ( 4.275831445896957731E-31, 1.000000000000000000, 1.224646799147353207E-16 ) ) ;
#104 = EDGE_LOOP ( 'NONE', ( #89 ) ) ;
#105 = CONICAL_SURFACE ( 'NONE', #119, 0.7249999999999953149, 1.134464013796309345 ) ;
#106 = EDGE_LOOP ( 'NONE', ( #45 ) ) ;
#107 = DIRECTION ( 'NONE',  ( -3.491481338843133355E-15, 1.224646799147353207E-16, -1.000000000000000000 ) ) ;
#108 = VERTEX_POINT ( 'NONE', #51 ) ;
#109 = CIRCLE ( 'NONE', #200, 0.5250000000000000222 ) ;
#110 = FACE_OUTER_BOUND ( 'NONE', #123, .T. ) ;
#111 = PLANE ( 'NONE',  #28 ) ;
#112 = ADVANCED_FACE ( 'NONE', ( #110, #98 ), #78, .T. ) ;
#113 = AXIS2_PLACEMENT_3D ( 'NONE', #128, #107, #145 ) ;
#114 = PERSON_AND_ORGANIZATION ( #37, #150 ) ;
#115 = CALENDAR_DATE ( 2021, 6, 10 ) ;
#116 = PRODUCT ( '55621', '55621', '', ( #127 ) ) ;
#117 = PERSON_AND_ORGANIZATION ( #37, #150 ) ;
#118 = PERSON_AND_ORGANIZATION_ROLE ( 'design_owner' ) ;
#119 = AXIS2_PLACEMENT_3D ( 'NONE', #170, #31, #32 ) ;
#120 = SECURITY_CLASSIFICATION ( '', '', #100 ) ;
#121 = CARTESIAN_POINT ( 'NONE',  ( 1.319779946082704535E-13, -4.629164900776995227E-15, 37.79999999999999716 ) ) ;
#122 = APPLICATION_CONTEXT ( 'configuration controlled 3d designs of mechanical parts and assemblies' ) ;
#123 = EDGE_LOOP ( 'NONE', ( #27 ) ) ;
#124 = AXIS2_PLACEMENT_3D ( 'NONE', #47, #10, #103 ) ;
#125 = APPROVAL_PERSON_ORGANIZATION ( #135, #185, #131 ) ;
#126 = EDGE_LOOP ( 'NONE', ( #166 ) ) ;
#127 = MECHANICAL_CONTEXT ( 'NONE', #91, 'mechanical' ) ;
#128 = CARTESIAN_POINT ( 'NONE',  ( 0.0000000000000000000, 0.0000000000000000000, 0.0000000000000000000 ) ) ;
#129 = AXIS2_PLACEMENT_3D ( 'NONE', #12, #152, #43 ) ;
#130 = DIRECTION ( 'NONE',  ( -3.491481338843133355E-15, 1.224646799147353207E-16, -1.000000000000000000 ) ) ;
#131 = APPROVAL_ROLE ( '' ) ;
#132 = CALENDAR_DATE ( 2021, 6, 10 ) ;
#133 = APPROVAL_STATUS ( 'not_yet_approved' ) ;
#134 = CC_DESIGN_APPROVAL ( #136, ( #190 ) ) ;
#135 = PERSON_AND_ORGANIZATION ( #37, #150 ) ;
#136 = APPROVAL ( #178, 'UNSPECIFIED' ) ;
#137 = PLANE ( 'NONE',  #82 ) ;
#138 = MANIFOLD_SOLID_BREP ( 'Corps-Déplacer/Copier1[2]', #95 ) ;
#139 = DIRECTION ( 'NONE',  ( -4.275831445896958607E-31, -1.000000000000000000, -1.224646799147353207E-16 ) ) ;
#140 = MANIFOLD_SOLID_BREP ( 'Corps-Déplacer/Copier1[1]', #195 ) ;
#141 = DIRECTION ( 'NONE',  ( -3.491481338843133355E-15, 1.224646799147353207E-16, -1.000000000000000000 ) ) ;
#142 = EDGE_LOOP ( 'NONE', ( #198 ) ) ;
#143 = CC_DESIGN_DATE_AND_TIME_ASSIGNMENT ( #179, #149, ( #190 ) ) ;
#144 = FACE_OUTER_BOUND ( 'NONE', #72, .T. ) ;
#145 = DIRECTION ( 'NONE',  ( 4.275831445896958607E-31, 1.000000000000000000, 1.224646799147353207E-16 ) ) ;
#146 = CARTESIAN_POINT ( 'NONE',  ( 1.326762908760390423E-13, 3.936869429487305745E-33, 38.00000000000000000 ) ) ;
#147 = DIRECTION ( 'NONE',  ( -4.275831445896958607E-31, -1.000000000000000000, -1.224646799147353207E-16 ) ) ;
#148 = PERSON_AND_ORGANIZATION ( #37, #150 ) ;
#149 = DATE_TIME_ROLE ( 'creation_date' ) ;
#150 = ORGANIZATION ( 'UNSPECIFIED', 'UNSPECIFIED', '' ) ;
#151 = FACE_BOUND ( 'NONE', #29, .T. ) ;
#152 = DIRECTION ( 'NONE',  ( -3.491481338843133355E-15, 1.224646799147353207E-16, -1.000000000000000000 ) ) ;
#153 = ORIENTED_EDGE ( 'NONE', *, *, #58, .T. ) ;
#154 = CIRCLE ( 'NONE', #25, 0.7249999999999953149 ) ;
#155 = FACE_OUTER_BOUND ( 'NONE', #77, .T. ) ;
#156 = VERTEX_POINT ( 'NONE', #157 ) ;
#157 = CARTESIAN_POINT ( 'NONE',  ( 1.319779946082704535E-13, 0.7249999999999953149, 37.79999999999999716 ) ) ;
#158 = LOCAL_TIME ( 13, 19, 59.00000000000000000, #86 ) ;
#159 = PERSON_AND_ORGANIZATION ( #37, #150 ) ;
#160 = DATE_AND_TIME ( #6, #176 ) ;
#161 = EDGE_CURVE ( 'NONE', #203, #203, #154, .T. ) ;
#162 = DATE_AND_TIME ( #165, #50 ) ;
#163 = UNCERTAINTY_MEASURE_WITH_UNIT (LENGTH_MEASURE( 1.000000000000000082E-05 ), #18, 'distance_accuracy_value', 'NONE');
#164 = ADVANCED_FACE ( 'NONE', ( #144 ), #1, .F. ) ;
#165 = CALENDAR_DATE ( 2021, 6, 10 ) ;
#166 = ORIENTED_EDGE ( 'NONE', *, *, #62, .T. ) ;
#167 = AXIS2_PLACEMENT_3D ( 'NONE', #146, #130, #16 ) ;
#168 = CYLINDRICAL_SURFACE ( 'NONE', #124, 0.7249999999999963141 ) ;
#169 = DIRECTION ( 'NONE',  ( 0.0000000000000000000, 1.000000000000000000, 0.0000000000000000000 ) ) ;
#170 = CARTESIAN_POINT ( 'NONE',  ( 1.180375752790677730E-15, -4.140200812086301676E-17, 0.3380730521623762086 ) ) ;
#171 = CARTESIAN_POINT ( 'NONE',  ( 1.180375752790677730E-15, -4.140200812086301676E-17, 0.3380730521623762086 ) ) ;
#172 = VERTEX_POINT ( 'NONE', #97 ) ;
#173 = AXIS2_PLACEMENT_3D ( 'NONE', #121, #141, #13 ) ;
#174 = CALENDAR_DATE ( 2021, 6, 10 ) ;
#175 = APPROVAL_DATE_TIME ( #160, #136 ) ;
#176 = LOCAL_TIME ( 13, 19, 59.00000000000000000, #39 ) ;
#177 = ADVANCED_FACE ( 'NONE', ( #155 ), #111, .F. ) ;
#178 = APPROVAL_STATUS ( 'not_yet_approved' ) ;
#179 = DATE_AND_TIME ( #115, #158 ) ;
#180 = EDGE_LOOP ( 'NONE', ( #59 ) ) ;
#181 = EDGE_LOOP ( 'NONE', ( #183 ) ) ;
#182 = ORIENTED_EDGE ( 'NONE', *, *, #67, .T. ) ;
#183 = ORIENTED_EDGE ( 'NONE', *, *, #80, .F. ) ;
#184 = CIRCLE ( 'NONE', #173, 0.7249999999999999778 ) ;
#185 = APPROVAL ( #66, 'UNSPECIFIED' ) ;
#186 = AXIS2_PLACEMENT_3D ( 'NONE', #26, #197, #75 ) ;
#187 = COORDINATED_UNIVERSAL_TIME_OFFSET ( 1, 0, .AHEAD. ) ;
#188 = SHAPE_DEFINITION_REPRESENTATION ( #8, #102 ) ;
#189 = APPROVAL_ROLE ( '' ) ;
#190 = PRODUCT_DEFINITION ( 'UNKNOWN', '', #101, #191 ) ;
#191 = DESIGN_CONTEXT ( 'detailed design', #122, 'design' ) ;
#192 = CARTESIAN_POINT ( 'NONE',  ( 5.586370142149013368E-14, 5.436629212149184564E-33, 16.00000000000000000 ) ) ;
#193 = CC_DESIGN_APPROVAL ( #48, ( #101 ) ) ;
#194 = DIRECTION ( 'NONE',  ( 3.491481338843133355E-15, -1.224646799147353207E-16, 1.000000000000000000 ) ) ;
#195 = CLOSED_SHELL ( 'NONE', ( #177, #112, #56, #164 ) ) ;
#196 = CC_DESIGN_APPROVAL ( #185, ( #120 ) ) ;
#197 = DIRECTION ( 'NONE',  ( -3.491481338843133355E-15, 1.224646799147353207E-16, -1.000000000000000000 ) ) ;
#198 = ORIENTED_EDGE ( 'NONE', *, *, #161, .T. ) ;
#199 = ORIENTED_EDGE ( 'NONE', *, *, #67, .F. ) ;
#200 = AXIS2_PLACEMENT_3D ( 'NONE', #30, #60, #74 ) ;
#201 = APPLICATION_PROTOCOL_DEFINITION ( 'international standard', 'config_control_design', 1994, #91 ) ;
#202 = CC_DESIGN_PERSON_AND_ORGANIZATION_ASSIGNMENT ( #117, #69, ( #120 ) ) ;
#203 = VERTEX_POINT ( 'NONE', #52 ) ;
ENDSEC;
END-ISO-10303-21;
