ISO-10303-21;
HEADER;
FILE_DESCRIPTION (( 'STEP AP203' ),
    '1' );
FILE_NAME ('55619.step',
    '2021-10-06T11:19:58',
    ( '' ),
    ( '' ),
    'SwSTEP 2.0',
    'SolidWorks 2019',
    '' );
FILE_SCHEMA (( 'CONFIG_CONTROL_DESIGN' ));
ENDSEC;

DATA;
#1 = FACE_OUTER_BOUND ( 'NONE', #12, .T. ) ;
#2 = LOCAL_TIME ( 13, 19, 58.00000000000000000, #102 ) ;
#3 = FACE_OUTER_BOUND ( 'NONE', #46, .T. ) ;
#4 = APPROVAL_ROLE ( '' ) ;
#5 = COORDINATED_UNIVERSAL_TIME_OFFSET ( 1, 0, .AHEAD. ) ;
#6 = DIRECTION ( 'NONE',  ( 0.0000000000000000000, 0.0000000000000000000, 1.000000000000000000 ) ) ;
#7 = EDGE_CURVE ( 'NONE', #111, #111, #26, .T. ) ;
#8 = LOCAL_TIME ( 13, 19, 58.00000000000000000, #134 ) ;
#9 = DATE_AND_TIME ( #103, #68 ) ;
#10 = ORIENTED_EDGE ( 'NONE', *, *, #166, .T. ) ;
#11 = CC_DESIGN_APPROVAL ( #28, ( #198 ) ) ;
#12 = EDGE_LOOP ( 'NONE', ( #88 ) ) ;
#13 = ADVANCED_FACE ( 'NONE', ( #158, #70 ), #124, .T. ) ;
#14 = ORIENTED_EDGE ( 'NONE', *, *, #7, .F. ) ;
#15 = ORIENTED_EDGE ( 'NONE', *, *, #166, .F. ) ;
#16 = CC_DESIGN_APPROVAL ( #41, ( #149 ) ) ;
#17 = DIRECTION ( 'NONE',  ( -3.491481338843133355E-15, 1.224646799147353207E-16, -1.000000000000000000 ) ) ;
#18 = CIRCLE ( 'NONE', #30, 0.6999999999999952927 ) ;
#19 = CARTESIAN_POINT ( 'NONE',  ( 1.139673140625481762E-15, -3.997435266841946573E-17, 0.3264153607085011344 ) ) ;
#20 = FACE_OUTER_BOUND ( 'NONE', #64, .T. ) ;
#21 = CARTESIAN_POINT ( 'NONE',  ( 5.586370142149013368E-14, 5.249159239316452363E-33, 16.00000000000000000 ) ) ;
#22 = VERTEX_POINT ( 'NONE', #117 ) ;
#23 = PERSON_AND_ORGANIZATION_ROLE ( 'classification_officer' ) ;
#24 = PERSON_AND_ORGANIZATION ( #51, #187 ) ;
#25 = CONICAL_SURFACE ( 'NONE', #199, 0.6999999999999952927, 1.134464013796309123 ) ;
#26 = CIRCLE ( 'NONE', #76, 0.5000000000000000000 ) ;
#27 = DATE_TIME_ROLE ( 'creation_date' ) ;
#28 = APPROVAL ( #161, 'UNSPECIFIED' ) ;
#29 =( NAMED_UNIT ( * ) PLANE_ANGLE_UNIT ( ) SI_UNIT ( $, .RADIAN. ) );
#30 = AXIS2_PLACEMENT_3D ( 'NONE', #192, #79, #128 ) ;
#31 = ORIENTED_EDGE ( 'NONE', *, *, #7, .T. ) ;
#32 = CARTESIAN_POINT ( 'NONE',  ( 5.586370142149013368E-14, -1.959434878635765131E-15, 16.00000000000000000 ) ) ;
#33 = DIRECTION ( 'NONE',  ( -5.502656983963568168E-31, -1.000000000000000000, -1.548860246407873937E-16 ) ) ;
#34 = DIRECTION ( 'NONE',  ( -3.491481338843133355E-15, 1.224646799147353207E-16, -1.000000000000000000 ) ) ;
#35 = DIRECTION ( 'NONE',  ( 0.0000000000000000000, 1.000000000000000000, 0.0000000000000000000 ) ) ;
#36 = AXIS2_PLACEMENT_3D ( 'NONE', #81, #126, #190 ) ;
#37 = PERSON_AND_ORGANIZATION_ROLE ( 'creator' ) ;
#38 = UNCERTAINTY_MEASURE_WITH_UNIT (LENGTH_MEASURE( 1.000000000000000082E-05 ), #43, 'distance_accuracy_value', 'NONE');
#39 = PERSON_AND_ORGANIZATION ( #51, #187 ) ;
#40 = CARTESIAN_POINT ( 'NONE',  ( 5.586370142149013368E-14, 0.6999999999999952927, 16.00000000000000000 ) ) ;
#41 = APPROVAL ( #57, 'UNSPECIFIED' ) ;
#42 = CIRCLE ( 'NONE', #200, 0.6999999999999972911 ) ;
#43 =( LENGTH_UNIT ( ) NAMED_UNIT ( * ) SI_UNIT ( .MILLI., .METRE. ) );
#44 = DATE_AND_TIME ( #61, #108 ) ;
#45 = PRODUCT ( '55619', '55619', '', ( #119 ) ) ;
#46 = EDGE_LOOP ( 'NONE', ( #15 ) ) ;
#47 = APPLICATION_CONTEXT ( 'configuration controlled 3d designs of mechanical parts and assemblies' ) ;
#48 = DIRECTION ( 'NONE',  ( -3.491481338843133355E-15, 1.224646799147353207E-16, -1.000000000000000000 ) ) ;
#49 = CARTESIAN_POINT ( 'NONE',  ( 0.0000000000000000000, 0.0000000000000000000, 0.0000000000000000000 ) ) ;
#50 = FACE_OUTER_BOUND ( 'NONE', #155, .T. ) ;
#51 = PERSON ( 'UNSPECIFIED', 'UNSPECIFIED', 'UNSPECIFIED', ('UNSPECIFIED'), ('UNSPECIFIED'), ('UNSPECIFIED') ) ;
#52 = CC_DESIGN_DATE_AND_TIME_ASSIGNMENT ( #9, #27, ( #198 ) ) ;
#53 = ORIENTED_EDGE ( 'NONE', *, *, #125, .F. ) ;
#54 = PERSON_AND_ORGANIZATION ( #51, #187 ) ;
#55 = AXIS2_PLACEMENT_3D ( 'NONE', #32, #93, #94 ) ;
#56 = DATE_AND_TIME ( #150, #8 ) ;
#57 = APPROVAL_STATUS ( 'not_yet_approved' ) ;
#58 = CONICAL_SURFACE ( 'NONE', #82, 0.5000000000000000000, 0.7853981633974512766 ) ;
#59 = CALENDAR_DATE ( 2021, 6, 10 ) ;
#60 = APPLICATION_CONTEXT ( 'configuration controlled 3d designs of mechanical parts and assemblies' ) ;
#61 = CALENDAR_DATE ( 2021, 6, 10 ) ;
#62 = CC_DESIGN_SECURITY_CLASSIFICATION ( #149, ( #152 ) ) ;
#63 = PRODUCT_DEFINITION_SHAPE ( 'NONE', 'NONE',  #198 ) ;
#64 = EDGE_LOOP ( 'NONE', ( #168 ) ) ;
#65 = CYLINDRICAL_SURFACE ( 'NONE', #180, 0.6999999999999962919 ) ;
#66 = CARTESIAN_POINT ( 'NONE',  ( 0.0000000000000000000, 0.0000000000000000000, 0.0000000000000000000 ) ) ;
#67 = DIRECTION ( 'NONE',  ( -3.491481338843133355E-15, 1.224646799147353207E-16, -1.000000000000000000 ) ) ;
#68 = LOCAL_TIME ( 13, 19, 58.00000000000000000, #101 ) ;
#69 = CIRCLE ( 'NONE', #91, 0.6999999999999999556 ) ;
#70 = FACE_OUTER_BOUND ( 'NONE', #174, .T. ) ;
#71 = DESIGN_CONTEXT ( 'detailed design', #47, 'design' ) ;
#72 = VERTEX_POINT ( 'NONE', #40 ) ;
#73 = APPLICATION_PROTOCOL_DEFINITION ( 'international standard', 'config_control_design', 1994, #47 ) ;
#74 = EDGE_LOOP ( 'NONE', ( #53 ) ) ;
#75 = ADVANCED_FACE ( 'NONE', ( #98, #138 ), #58, .T. ) ;
#76 = AXIS2_PLACEMENT_3D ( 'NONE', #77, #95, #171 ) ;
#77 = CARTESIAN_POINT ( 'NONE',  ( 1.326762908760390423E-13, -4.653657836759941941E-15, 38.00000000000000000 ) ) ;
#78 = ORIENTED_EDGE ( 'NONE', *, *, #136, .F. ) ;
#79 = DIRECTION ( 'NONE',  ( -3.491481338843133355E-15, 1.224646799147353207E-16, -1.000000000000000000 ) ) ;
#80 = CARTESIAN_POINT ( 'NONE',  ( 1.319779946082704535E-13, -4.629164900776995227E-15, 37.79999999999999716 ) ) ;
#81 = CARTESIAN_POINT ( 'NONE',  ( 5.586370142149013368E-14, 5.249159239316452363E-33, 16.00000000000000000 ) ) ;
#82 = AXIS2_PLACEMENT_3D ( 'NONE', #188, #17, #201 ) ;
#83 = PERSON_AND_ORGANIZATION_ROLE ( 'creator' ) ;
#84 = COORDINATED_UNIVERSAL_TIME_OFFSET ( 1, 0, .AHEAD. ) ;
#85 = CALENDAR_DATE ( 2021, 6, 10 ) ;
#86 = CLOSED_SHELL ( 'NONE', ( #100, #110, #143 ) ) ;
#87 = ADVANCED_BREP_SHAPE_REPRESENTATION ( '55619', ( #162, #96, #159 ), #135 ) ;
#88 = ORIENTED_EDGE ( 'NONE', *, *, #106, .F. ) ;
#89 = APPROVAL ( #197, 'UNSPECIFIED' ) ;
#90 = APPROVAL_PERSON_ORGANIZATION ( #39, #89, #165 ) ;
#91 = AXIS2_PLACEMENT_3D ( 'NONE', #80, #67, #35 ) ;
#92 = APPROVAL_DATE_TIME ( #44, #41 ) ;
#93 = DIRECTION ( 'NONE',  ( -3.491481338843133355E-15, 1.224646799147353207E-16, -1.000000000000000000 ) ) ;
#94 = DIRECTION ( 'NONE',  ( 0.0000000000000000000, 1.000000000000000000, 0.0000000000000000000 ) ) ;
#95 = DIRECTION ( 'NONE',  ( -3.491481338843133355E-15, 1.224646799147353207E-16, -1.000000000000000000 ) ) ;
#96 = MANIFOLD_SOLID_BREP ( 'Corps-Déplacer/Copier1[2]', #86 ) ;
#97 = CARTESIAN_POINT ( 'NONE',  ( 1.326762908760390423E-13, 3.749399456654574913E-33, 38.00000000000000000 ) ) ;
#98 = FACE_OUTER_BOUND ( 'NONE', #74, .T. ) ;
#99 = DATE_AND_TIME ( #85, #167 ) ;
#100 = ADVANCED_FACE ( 'NONE', ( #172 ), #25, .T. ) ;
#101 = COORDINATED_UNIVERSAL_TIME_OFFSET ( 1, 0, .AHEAD. ) ;
#102 = COORDINATED_UNIVERSAL_TIME_OFFSET ( 1, 0, .AHEAD. ) ;
#103 = CALENDAR_DATE ( 2021, 6, 10 ) ;
#104 = APPLICATION_PROTOCOL_DEFINITION ( 'international standard', 'config_control_design', 1994, #60 ) ;
#105 = CIRCLE ( 'NONE', #55, 0.6999999999999972911 ) ;
#106 = EDGE_CURVE ( 'NONE', #72, #72, #42, .T. ) ;
#107 = FACE_OUTER_BOUND ( 'NONE', #173, .T. ) ;
#108 = LOCAL_TIME ( 13, 19, 58.00000000000000000, #84 ) ;
#109 = DIRECTION ( 'NONE',  ( 3.491481338843133355E-15, -1.224646799147353207E-16, 1.000000000000000000 ) ) ;
#110 = ADVANCED_FACE ( 'NONE', ( #3, #20 ), #65, .T. ) ;
#111 = VERTEX_POINT ( 'NONE', #144 ) ;
#112 = DIRECTION ( 'NONE',  ( 4.275831445896958607E-31, 1.000000000000000000, 1.224646799147353207E-16 ) ) ;
#113 = ORIENTED_EDGE ( 'NONE', *, *, #136, .T. ) ;
#114 = PERSON_AND_ORGANIZATION_ROLE ( 'design_supplier' ) ;
#115 = AXIS2_PLACEMENT_3D ( 'NONE', #97, #189, #142 ) ;
#116 = VERTEX_POINT ( 'NONE', #194 ) ;
#117 = CARTESIAN_POINT ( 'NONE',  ( 1.319779946082704535E-13, 0.6999999999999952927, 37.79999999999999716 ) ) ;
#118 = DATE_TIME_ROLE ( 'classification_date' ) ;
#119 = MECHANICAL_CONTEXT ( 'NONE', #60, 'mechanical' ) ;
#120 = CC_DESIGN_PERSON_AND_ORGANIZATION_ASSIGNMENT ( #178, #83, ( #198 ) ) ;
#121 = DATE_AND_TIME ( #59, #2 ) ;
#122 = APPROVAL_PERSON_ORGANIZATION ( #179, #41, #181 ) ;
#123 = EDGE_LOOP ( 'NONE', ( #31 ) ) ;
#124 = CYLINDRICAL_SURFACE ( 'NONE', #164, 0.6999999999999986233 ) ;
#125 = EDGE_CURVE ( 'NONE', #22, #22, #69, .T. ) ;
#126 = DIRECTION ( 'NONE',  ( 3.491481338843133355E-15, -1.224646799147353207E-16, 1.000000000000000000 ) ) ;
#127 = DIRECTION ( 'NONE',  ( -4.275831445896958607E-31, -1.000000000000000000, -1.224646799147353207E-16 ) ) ;
#128 = DIRECTION ( 'NONE',  ( 5.502656983963568168E-31, 1.000000000000000000, 1.548860246407873937E-16 ) ) ;
#129 = ADVANCED_FACE ( 'NONE', ( #107 ), #160, .F. ) ;
#130 = CARTESIAN_POINT ( 'NONE',  ( 5.586370142149013368E-14, 0.6999999999999952927, 16.00000000000000000 ) ) ;
#131 = APPROVAL_DATE_TIME ( #56, #28 ) ;
#132 = AXIS2_PLACEMENT_3D ( 'NONE', #21, #157, #127 ) ;
#133 =( NAMED_UNIT ( * ) SI_UNIT ( $, .STERADIAN. ) SOLID_ANGLE_UNIT ( ) );
#134 = COORDINATED_UNIVERSAL_TIME_OFFSET ( 1, 0, .AHEAD. ) ;
#135 =( GEOMETRIC_REPRESENTATION_CONTEXT ( 3 ) GLOBAL_UNCERTAINTY_ASSIGNED_CONTEXT ( ( #38 ) ) GLOBAL_UNIT_ASSIGNED_CONTEXT ( ( #43, #29, #133 ) ) REPRESENTATION_CONTEXT ( 'NONE', 'WORKASPACE' ) );
#136 = EDGE_CURVE ( 'NONE', #147, #147, #105, .T. ) ;
#137 = CC_DESIGN_PERSON_AND_ORGANIZATION_ASSIGNMENT ( #163, #23, ( #149 ) ) ;
#138 = FACE_BOUND ( 'NONE', #123, .T. ) ;
#139 = DIRECTION ( 'NONE',  ( 4.275831445896957731E-31, 1.000000000000000000, 1.224646799147353207E-16 ) ) ;
#140 = CC_DESIGN_PERSON_AND_ORGANIZATION_ASSIGNMENT ( #54, #114, ( #152 ) ) ;
#141 = PLANE ( 'NONE',  #36 ) ;
#142 = DIRECTION ( 'NONE',  ( 4.275831445896958607E-31, 1.000000000000000000, 1.224646799147353207E-16 ) ) ;
#143 = ADVANCED_FACE ( 'NONE', ( #1 ), #156, .T. ) ;
#144 = CARTESIAN_POINT ( 'NONE',  ( 1.326762908760390423E-13, 0.4999999999999953371, 38.00000000000000000 ) ) ;
#145 = PERSON_AND_ORGANIZATION ( #51, #187 ) ;
#146 = PERSON_AND_ORGANIZATION_ROLE ( 'design_owner' ) ;
#147 = VERTEX_POINT ( 'NONE', #130 ) ;
#148 = CC_DESIGN_PERSON_AND_ORGANIZATION_ASSIGNMENT ( #145, #37, ( #152 ) ) ;
#149 = SECURITY_CLASSIFICATION ( '', '', #176 ) ;
#150 = CALENDAR_DATE ( 2021, 6, 10 ) ;
#151 = CC_DESIGN_DATE_AND_TIME_ASSIGNMENT ( #99, #118, ( #149 ) ) ;
#152 = PRODUCT_DEFINITION_FORMATION_WITH_SPECIFIED_SOURCE ( 'ANY', '', #45, .NOT_KNOWN. ) ;
#153 = APPROVAL_PERSON_ORGANIZATION ( #195, #28, #4 ) ;
#154 = EDGE_LOOP ( 'NONE', ( #10 ) ) ;
#155 = EDGE_LOOP ( 'NONE', ( #113 ) ) ;
#156 = PLANE ( 'NONE',  #132 ) ;
#157 = DIRECTION ( 'NONE',  ( 3.491481338843133355E-15, -1.224646799147353207E-16, 1.000000000000000000 ) ) ;
#158 = FACE_OUTER_BOUND ( 'NONE', #186, .T. ) ;
#159 = AXIS2_PLACEMENT_3D ( 'NONE', #196, #6, #177 ) ;
#160 = PLANE ( 'NONE',  #115 ) ;
#161 = APPROVAL_STATUS ( 'not_yet_approved' ) ;
#162 = MANIFOLD_SOLID_BREP ( 'Corps-Déplacer/Copier1[1]', #191 ) ;
#163 = PERSON_AND_ORGANIZATION ( #51, #187 ) ;
#164 = AXIS2_PLACEMENT_3D ( 'NONE', #49, #175, #139 ) ;
#165 = APPROVAL_ROLE ( '' ) ;
#166 = EDGE_CURVE ( 'NONE', #116, #116, #18, .T. ) ;
#167 = LOCAL_TIME ( 13, 19, 58.00000000000000000, #5 ) ;
#168 = ORIENTED_EDGE ( 'NONE', *, *, #106, .T. ) ;
#169 = ADVANCED_FACE ( 'NONE', ( #50 ), #141, .F. ) ;
#170 = CC_DESIGN_PERSON_AND_ORGANIZATION_ASSIGNMENT ( #24, #146, ( #45 ) ) ;
#171 = DIRECTION ( 'NONE',  ( 0.0000000000000000000, 1.000000000000000000, 0.0000000000000000000 ) ) ;
#172 = FACE_OUTER_BOUND ( 'NONE', #154, .T. ) ;
#173 = EDGE_LOOP ( 'NONE', ( #14 ) ) ;
#174 = EDGE_LOOP ( 'NONE', ( #185 ) ) ;
#175 = DIRECTION ( 'NONE',  ( -3.491481338843133355E-15, 1.224646799147353207E-16, -1.000000000000000000 ) ) ;
#176 = SECURITY_CLASSIFICATION_LEVEL ( 'unclassified' ) ;
#177 = DIRECTION ( 'NONE',  ( 1.000000000000000000, 0.0000000000000000000, 0.0000000000000000000 ) ) ;
#178 = PERSON_AND_ORGANIZATION ( #51, #187 ) ;
#179 = PERSON_AND_ORGANIZATION ( #51, #187 ) ;
#180 = AXIS2_PLACEMENT_3D ( 'NONE', #66, #48, #112 ) ;
#181 = APPROVAL_ROLE ( '' ) ;
#182 = SHAPE_DEFINITION_REPRESENTATION ( #63, #87 ) ;
#183 = CC_DESIGN_APPROVAL ( #89, ( #152 ) ) ;
#184 = PRODUCT_RELATED_PRODUCT_CATEGORY ( 'detail', '', ( #45 ) ) ;
#185 = ORIENTED_EDGE ( 'NONE', *, *, #125, .T. ) ;
#186 = EDGE_LOOP ( 'NONE', ( #78 ) ) ;
#187 = ORGANIZATION ( 'UNSPECIFIED', 'UNSPECIFIED', '' ) ;
#188 = CARTESIAN_POINT ( 'NONE',  ( 1.326762908760390423E-13, -4.653657836759941941E-15, 38.00000000000000000 ) ) ;
#189 = DIRECTION ( 'NONE',  ( -3.491481338843133355E-15, 1.224646799147353207E-16, -1.000000000000000000 ) ) ;
#190 = DIRECTION ( 'NONE',  ( -4.275831445896958607E-31, -1.000000000000000000, -1.224646799147353207E-16 ) ) ;
#191 = CLOSED_SHELL ( 'NONE', ( #169, #13, #75, #129 ) ) ;
#192 = CARTESIAN_POINT ( 'NONE',  ( 1.139673140625481762E-15, -3.997435266841946573E-17, 0.3264153607085011344 ) ) ;
#193 = APPROVAL_DATE_TIME ( #121, #89 ) ;
#194 = CARTESIAN_POINT ( 'NONE',  ( 1.139673140625482157E-15, 0.6999999999999952927, 0.3264153607085012454 ) ) ;
#195 = PERSON_AND_ORGANIZATION ( #51, #187 ) ;
#196 = CARTESIAN_POINT ( 'NONE',  ( 0.0000000000000000000, 0.0000000000000000000, 0.0000000000000000000 ) ) ;
#197 = APPROVAL_STATUS ( 'not_yet_approved' ) ;
#198 = PRODUCT_DEFINITION ( 'UNKNOWN', '', #152, #71 ) ;
#199 = AXIS2_PLACEMENT_3D ( 'NONE', #19, #109, #33 ) ;
#200 = AXIS2_PLACEMENT_3D ( 'NONE', #203, #34, #202 ) ;
#201 = DIRECTION ( 'NONE',  ( 0.0000000000000000000, 1.000000000000000000, 0.0000000000000000000 ) ) ;
#202 = DIRECTION ( 'NONE',  ( 0.0000000000000000000, 1.000000000000000000, 0.0000000000000000000 ) ) ;
#203 = CARTESIAN_POINT ( 'NONE',  ( 5.586370142149013368E-14, -1.959434878635765131E-15, 16.00000000000000000 ) ) ;
ENDSEC;
END-ISO-10303-21;
