ISO-10303-21;
HEADER;
FILE_DESCRIPTION (( 'STEP AP203' ),
    '1' );
FILE_NAME ('55617.step',
    '2021-10-06T11:19:56',
    ( '' ),
    ( '' ),
    'SwSTEP 2.0',
    'SolidWorks 2019',
    '' );
FILE_SCHEMA (( 'CONFIG_CONTROL_DESIGN' ));
ENDSEC;

DATA;
#1 = CLOSED_SHELL ( 'NONE', ( #179, #100, #105 ) ) ;
#2 = APPROVAL_ROLE ( '' ) ;
#3 = CONICAL_SURFACE ( 'NONE', #156, 0.6749999999999953815, 1.134464013796309345 ) ;
#4 = ORIENTED_EDGE ( 'NONE', *, *, #190, .F. ) ;
#5 = AXIS2_PLACEMENT_3D ( 'NONE', #134, #57, #185 ) ;
#6 = APPROVAL_PERSON_ORGANIZATION ( #78, #168, #33 ) ;
#7 = ADVANCED_FACE ( 'NONE', ( #132 ), #41, .F. ) ;
#8 = ORIENTED_EDGE ( 'NONE', *, *, #198, .F. ) ;
#9 = DIRECTION ( 'NONE',  ( 0.0000000000000000000, 1.000000000000000000, 0.0000000000000000000 ) ) ;
#10 = FACE_OUTER_BOUND ( 'NONE', #173, .T. ) ;
#11 = DIRECTION ( 'NONE',  ( -3.491481338843133355E-15, 1.224646799147353207E-16, -1.000000000000000000 ) ) ;
#12 = ORIENTED_EDGE ( 'NONE', *, *, #198, .T. ) ;
#13 = CARTESIAN_POINT ( 'NONE',  ( 1.319779946082704535E-13, 0.6749999999999953815, 37.79999999999999716 ) ) ;
#14 = EDGE_LOOP ( 'NONE', ( #12 ) ) ;
#15 = VERTEX_POINT ( 'NONE', #197 ) ;
#16 = DATE_AND_TIME ( #201, #191 ) ;
#17 = DATE_AND_TIME ( #48, #143 ) ;
#18 = CIRCLE ( 'NONE', #128, 0.4750000000000000333 ) ;
#19 = ADVANCED_BREP_SHAPE_REPRESENTATION ( '55617', ( #91, #28, #84 ), #175 ) ;
#20 = ORIENTED_EDGE ( 'NONE', *, *, #82, .T. ) ;
#21 = PLANE ( 'NONE',  #144 ) ;
#22 = CC_DESIGN_PERSON_AND_ORGANIZATION_ASSIGNMENT ( #137, #110, ( #194 ) ) ;
#23 = ORIENTED_EDGE ( 'NONE', *, *, #130, .T. ) ;
#24 = DIRECTION ( 'NONE',  ( 0.0000000000000000000, 1.000000000000000000, 0.0000000000000000000 ) ) ;
#25 = ORIENTED_EDGE ( 'NONE', *, *, #82, .F. ) ;
#26 = CARTESIAN_POINT ( 'NONE',  ( 1.326762908760390423E-13, -4.653657836759941941E-15, 38.00000000000000000 ) ) ;
#27 = DIRECTION ( 'NONE',  ( 4.275831445896958607E-31, 1.000000000000000000, 1.224646799147353207E-16 ) ) ;
#28 = MANIFOLD_SOLID_BREP ( 'Corps-Déplacer/Copier1[2]', #1 ) ;
#29 = AXIS2_PLACEMENT_3D ( 'NONE', #26, #195, #182 ) ;
#30 =( NAMED_UNIT ( * ) PLANE_ANGLE_UNIT ( ) SI_UNIT ( $, .RADIAN. ) );
#31 = VERTEX_POINT ( 'NONE', #121 ) ;
#32 = ADVANCED_FACE ( 'NONE', ( #86, #98 ), #149, .T. ) ;
#33 = APPROVAL_ROLE ( '' ) ;
#34 = CC_DESIGN_SECURITY_CLASSIFICATION ( #108, ( #94 ) ) ;
#35 = APPROVAL_ROLE ( '' ) ;
#36 = CIRCLE ( 'NONE', #64, 0.6750000000000000444 ) ;
#37 = LOCAL_TIME ( 13, 19, 56.00000000000000000, #109 ) ;
#38 = EDGE_LOOP ( 'NONE', ( #8 ) ) ;
#39 = PRODUCT_DEFINITION_SHAPE ( 'NONE', 'NONE',  #194 ) ;
#40 = APPLICATION_PROTOCOL_DEFINITION ( 'international standard', 'config_control_design', 1994, #60 ) ;
#41 = PLANE ( 'NONE',  #124 ) ;
#42 = FACE_OUTER_BOUND ( 'NONE', #14, .T. ) ;
#43 = EDGE_LOOP ( 'NONE', ( #72 ) ) ;
#44 = CIRCLE ( 'NONE', #58, 0.6749999999999973799 ) ;
#45 = DIRECTION ( 'NONE',  ( 0.0000000000000000000, 0.0000000000000000000, 1.000000000000000000 ) ) ;
#46 = APPROVAL_DATE_TIME ( #65, #87 ) ;
#47 = PERSON_AND_ORGANIZATION ( #155, #114 ) ;
#48 = CALENDAR_DATE ( 2021, 6, 10 ) ;
#49 = CC_DESIGN_APPROVAL ( #63, ( #194 ) ) ;
#50 = APPROVAL_DATE_TIME ( #139, #168 ) ;
#51 = COORDINATED_UNIVERSAL_TIME_OFFSET ( 1, 0, .AHEAD. ) ;
#52 = CC_DESIGN_APPROVAL ( #87, ( #108 ) ) ;
#53 = AXIS2_PLACEMENT_3D ( 'NONE', #135, #11, #59 ) ;
#54 = DIRECTION ( 'NONE',  ( 4.275831445896958607E-31, 1.000000000000000000, 1.224646799147353207E-16 ) ) ;
#55 = PERSON_AND_ORGANIZATION_ROLE ( 'design_owner' ) ;
#56 = DIRECTION ( 'NONE',  ( -3.491481338843133355E-15, 1.224646799147353207E-16, -1.000000000000000000 ) ) ;
#57 = DIRECTION ( 'NONE',  ( -3.491481338843133355E-15, 1.224646799147353207E-16, -1.000000000000000000 ) ) ;
#58 = AXIS2_PLACEMENT_3D ( 'NONE', #148, #184, #9 ) ;
#59 = DIRECTION ( 'NONE',  ( 2.853229547240368761E-31, 1.000000000000000000, 1.606225440719276721E-16 ) ) ;
#60 = APPLICATION_CONTEXT ( 'configuration controlled 3d designs of mechanical parts and assemblies' ) ;
#61 = ORIENTED_EDGE ( 'NONE', *, *, #190, .T. ) ;
#62 = CARTESIAN_POINT ( 'NONE',  ( 5.586370142149013368E-14, 5.061689266483720162E-33, 16.00000000000000000 ) ) ;
#63 = APPROVAL ( #188, 'UNSPECIFIED' ) ;
#64 = AXIS2_PLACEMENT_3D ( 'NONE', #163, #145, #24 ) ;
#65 = DATE_AND_TIME ( #90, #186 ) ;
#66 = PERSON_AND_ORGANIZATION_ROLE ( 'creator' ) ;
#67 = COORDINATED_UNIVERSAL_TIME_OFFSET ( 1, 0, .AHEAD. ) ;
#68 = ADVANCED_FACE ( 'NONE', ( #115 ), #21, .F. ) ;
#69 = APPROVAL_PERSON_ORGANIZATION ( #107, #63, #2 ) ;
#70 = CARTESIAN_POINT ( 'NONE',  ( 5.586370142149013368E-14, 5.061689266483720162E-33, 16.00000000000000000 ) ) ;
#71 = CC_DESIGN_DATE_AND_TIME_ASSIGNMENT ( #16, #154, ( #108 ) ) ;
#72 = ORIENTED_EDGE ( 'NONE', *, *, #89, .F. ) ;
#73 = CARTESIAN_POINT ( 'NONE',  ( 5.586370142149013368E-14, 0.6749999999999953815, 16.00000000000000000 ) ) ;
#74 = CYLINDRICAL_SURFACE ( 'NONE', #5, 0.6749999999999963807 ) ;
#75 = ORIENTED_EDGE ( 'NONE', *, *, #130, .F. ) ;
#76 = PLANE ( 'NONE',  #93 ) ;
#77 = APPLICATION_PROTOCOL_DEFINITION ( 'international standard', 'config_control_design', 1994, #157 ) ;
#78 = PERSON_AND_ORGANIZATION ( #155, #114 ) ;
#79 = AXIS2_PLACEMENT_3D ( 'NONE', #181, #146, #95 ) ;
#80 = DATE_TIME_ROLE ( 'creation_date' ) ;
#81 = CC_DESIGN_APPROVAL ( #168, ( #94 ) ) ;
#82 = EDGE_CURVE ( 'NONE', #133, #133, #140, .T. ) ;
#83 = DIRECTION ( 'NONE',  ( 0.0000000000000000000, 1.000000000000000000, 0.0000000000000000000 ) ) ;
#84 = AXIS2_PLACEMENT_3D ( 'NONE', #123, #45, #150 ) ;
#85 = VERTEX_POINT ( 'NONE', #73 ) ;
#86 = FACE_OUTER_BOUND ( 'NONE', #176, .T. ) ;
#87 = APPROVAL ( #152, 'UNSPECIFIED' ) ;
#88 = APPROVAL_STATUS ( 'not_yet_approved' ) ;
#89 = EDGE_CURVE ( 'NONE', #15, #15, #18, .T. ) ;
#90 = CALENDAR_DATE ( 2021, 6, 10 ) ;
#91 = MANIFOLD_SOLID_BREP ( 'Corps-Déplacer/Copier1[1]', #113 ) ;
#92 = CC_DESIGN_PERSON_AND_ORGANIZATION_ASSIGNMENT ( #192, #55, ( #159 ) ) ;
#93 = AXIS2_PLACEMENT_3D ( 'NONE', #62, #199, #122 ) ;
#94 = PRODUCT_DEFINITION_FORMATION_WITH_SPECIFIED_SOURCE ( 'ANY', '', #159, .NOT_KNOWN. ) ;
#95 = DIRECTION ( 'NONE',  ( 0.0000000000000000000, 1.000000000000000000, 0.0000000000000000000 ) ) ;
#96 = CARTESIAN_POINT ( 'NONE',  ( 1.326762908760390423E-13, 3.561929483821842712E-33, 38.00000000000000000 ) ) ;
#97 = DIRECTION ( 'NONE',  ( -3.491481338843133355E-15, 1.224646799147353207E-16, -1.000000000000000000 ) ) ;
#98 = FACE_OUTER_BOUND ( 'NONE', #127, .T. ) ;
#99 = CARTESIAN_POINT ( 'NONE',  ( 1.098970528460285795E-15, -3.854669721597589622E-17, 0.3147576692546260047 ) ) ;
#100 = ADVANCED_FACE ( 'NONE', ( #131, #10 ), #74, .T. ) ;
#101 = EDGE_LOOP ( 'NONE', ( #129 ) ) ;
#102 = DIRECTION ( 'NONE',  ( -2.853229547240368761E-31, -1.000000000000000000, -1.606225440719276721E-16 ) ) ;
#103 = MECHANICAL_CONTEXT ( 'NONE', #157, 'mechanical' ) ;
#104 = UNCERTAINTY_MEASURE_WITH_UNIT (LENGTH_MEASURE( 1.000000000000000082E-05 ), #200, 'distance_accuracy_value', 'NONE');
#105 = ADVANCED_FACE ( 'NONE', ( #136 ), #76, .T. ) ;
#106 = SHAPE_DEFINITION_REPRESENTATION ( #39, #19 ) ;
#107 = PERSON_AND_ORGANIZATION ( #155, #114 ) ;
#108 = SECURITY_CLASSIFICATION ( '', '', #203 ) ;
#109 = COORDINATED_UNIVERSAL_TIME_OFFSET ( 1, 0, .AHEAD. ) ;
#110 = PERSON_AND_ORGANIZATION_ROLE ( 'creator' ) ;
#111 = DESIGN_CONTEXT ( 'detailed design', #60, 'design' ) ;
#112 = PERSON_AND_ORGANIZATION ( #155, #114 ) ;
#113 = CLOSED_SHELL ( 'NONE', ( #68, #32, #142, #7 ) ) ;
#114 = ORGANIZATION ( 'UNSPECIFIED', 'UNSPECIFIED', '' ) ;
#115 = FACE_OUTER_BOUND ( 'NONE', #116, .T. ) ;
#116 = EDGE_LOOP ( 'NONE', ( #61 ) ) ;
#117 = CC_DESIGN_PERSON_AND_ORGANIZATION_ASSIGNMENT ( #47, #153, ( #108 ) ) ;
#118 = DIRECTION ( 'NONE',  ( 3.491481338843133355E-15, -1.224646799147353207E-16, 1.000000000000000000 ) ) ;
#119 = DIRECTION ( 'NONE',  ( 3.491481338843133355E-15, -1.224646799147353207E-16, 1.000000000000000000 ) ) ;
#120 = APPROVAL_PERSON_ORGANIZATION ( #171, #87, #35 ) ;
#121 = CARTESIAN_POINT ( 'NONE',  ( 1.098970528460285992E-15, 0.6749999999999953815, 0.3147576692546261157 ) ) ;
#122 = DIRECTION ( 'NONE',  ( -4.275831445896958607E-31, -1.000000000000000000, -1.224646799147353207E-16 ) ) ;
#123 = CARTESIAN_POINT ( 'NONE',  ( 0.0000000000000000000, 0.0000000000000000000, 0.0000000000000000000 ) ) ;
#124 = AXIS2_PLACEMENT_3D ( 'NONE', #96, #162, #27 ) ;
#125 = DATE_AND_TIME ( #170, #167 ) ;
#126 = PERSON_AND_ORGANIZATION ( #155, #114 ) ;
#127 = EDGE_LOOP ( 'NONE', ( #23 ) ) ;
#128 = AXIS2_PLACEMENT_3D ( 'NONE', #161, #97, #83 ) ;
#129 = ORIENTED_EDGE ( 'NONE', *, *, #89, .T. ) ;
#130 = EDGE_CURVE ( 'NONE', #165, #165, #36, .T. ) ;
#131 = FACE_OUTER_BOUND ( 'NONE', #38, .T. ) ;
#132 = FACE_OUTER_BOUND ( 'NONE', #43, .T. ) ;
#133 = VERTEX_POINT ( 'NONE', #183 ) ;
#134 = CARTESIAN_POINT ( 'NONE',  ( 0.0000000000000000000, 0.0000000000000000000, 0.0000000000000000000 ) ) ;
#135 = CARTESIAN_POINT ( 'NONE',  ( 1.098970528460285795E-15, -3.854669721597589622E-17, 0.3147576692546260047 ) ) ;
#136 = FACE_OUTER_BOUND ( 'NONE', #178, .T. ) ;
#137 = PERSON_AND_ORGANIZATION ( #155, #114 ) ;
#138 = CONICAL_SURFACE ( 'NONE', #29, 0.4750000000000000333, 0.7853981633974512766 ) ;
#139 = DATE_AND_TIME ( #187, #37 ) ;
#140 = CIRCLE ( 'NONE', #79, 0.6749999999999973799 ) ;
#141 = CIRCLE ( 'NONE', #53, 0.6749999999999953815 ) ;
#142 = ADVANCED_FACE ( 'NONE', ( #180, #196 ), #138, .T. ) ;
#143 = LOCAL_TIME ( 13, 19, 56.00000000000000000, #51 ) ;
#144 = AXIS2_PLACEMENT_3D ( 'NONE', #70, #119, #177 ) ;
#145 = DIRECTION ( 'NONE',  ( -3.491481338843133355E-15, 1.224646799147353207E-16, -1.000000000000000000 ) ) ;
#146 = DIRECTION ( 'NONE',  ( -3.491481338843133355E-15, 1.224646799147353207E-16, -1.000000000000000000 ) ) ;
#147 =( NAMED_UNIT ( * ) SI_UNIT ( $, .STERADIAN. ) SOLID_ANGLE_UNIT ( ) );
#148 = CARTESIAN_POINT ( 'NONE',  ( 5.586370142149013368E-14, -1.959434878635765131E-15, 16.00000000000000000 ) ) ;
#149 = CYLINDRICAL_SURFACE ( 'NONE', #166, 0.6749999999999987121 ) ;
#150 = DIRECTION ( 'NONE',  ( 1.000000000000000000, 0.0000000000000000000, 0.0000000000000000000 ) ) ;
#151 = CC_DESIGN_DATE_AND_TIME_ASSIGNMENT ( #17, #80, ( #194 ) ) ;
#152 = APPROVAL_STATUS ( 'not_yet_approved' ) ;
#153 = PERSON_AND_ORGANIZATION_ROLE ( 'classification_officer' ) ;
#154 = DATE_TIME_ROLE ( 'classification_date' ) ;
#155 = PERSON ( 'UNSPECIFIED', 'UNSPECIFIED', 'UNSPECIFIED', ('UNSPECIFIED'), ('UNSPECIFIED'), ('UNSPECIFIED') ) ;
#156 = AXIS2_PLACEMENT_3D ( 'NONE', #99, #118, #102 ) ;
#157 = APPLICATION_CONTEXT ( 'configuration controlled 3d designs of mechanical parts and assemblies' ) ;
#158 = PRODUCT_RELATED_PRODUCT_CATEGORY ( 'detail', '', ( #159 ) ) ;
#159 = PRODUCT ( '55617', '55617', '', ( #103 ) ) ;
#160 = CC_DESIGN_PERSON_AND_ORGANIZATION_ASSIGNMENT ( #112, #172, ( #94 ) ) ;
#161 = CARTESIAN_POINT ( 'NONE',  ( 1.326762908760390423E-13, -4.653657836759941941E-15, 38.00000000000000000 ) ) ;
#162 = DIRECTION ( 'NONE',  ( -3.491481338843133355E-15, 1.224646799147353207E-16, -1.000000000000000000 ) ) ;
#163 = CARTESIAN_POINT ( 'NONE',  ( 1.319779946082704535E-13, -4.629164900776995227E-15, 37.79999999999999716 ) ) ;
#164 = EDGE_LOOP ( 'NONE', ( #75 ) ) ;
#165 = VERTEX_POINT ( 'NONE', #13 ) ;
#166 = AXIS2_PLACEMENT_3D ( 'NONE', #193, #56, #54 ) ;
#167 = LOCAL_TIME ( 13, 19, 56.00000000000000000, #67 ) ;
#168 = APPROVAL ( #88, 'UNSPECIFIED' ) ;
#169 = APPROVAL_DATE_TIME ( #125, #63 ) ;
#170 = CALENDAR_DATE ( 2021, 6, 10 ) ;
#171 = PERSON_AND_ORGANIZATION ( #155, #114 ) ;
#172 = PERSON_AND_ORGANIZATION_ROLE ( 'design_supplier' ) ;
#173 = EDGE_LOOP ( 'NONE', ( #20 ) ) ;
#174 = COORDINATED_UNIVERSAL_TIME_OFFSET ( 1, 0, .AHEAD. ) ;
#175 =( GEOMETRIC_REPRESENTATION_CONTEXT ( 3 ) GLOBAL_UNCERTAINTY_ASSIGNED_CONTEXT ( ( #104 ) ) GLOBAL_UNIT_ASSIGNED_CONTEXT ( ( #200, #30, #147 ) ) REPRESENTATION_CONTEXT ( 'NONE', 'WORKASPACE' ) );
#176 = EDGE_LOOP ( 'NONE', ( #4 ) ) ;
#177 = DIRECTION ( 'NONE',  ( -4.275831445896958607E-31, -1.000000000000000000, -1.224646799147353207E-16 ) ) ;
#178 = EDGE_LOOP ( 'NONE', ( #25 ) ) ;
#179 = ADVANCED_FACE ( 'NONE', ( #42 ), #3, .T. ) ;
#180 = FACE_OUTER_BOUND ( 'NONE', #164, .T. ) ;
#181 = CARTESIAN_POINT ( 'NONE',  ( 5.586370142149013368E-14, -1.959434878635765131E-15, 16.00000000000000000 ) ) ;
#182 = DIRECTION ( 'NONE',  ( 0.0000000000000000000, 1.000000000000000000, 0.0000000000000000000 ) ) ;
#183 = CARTESIAN_POINT ( 'NONE',  ( 5.586370142149013368E-14, 0.6749999999999953815, 16.00000000000000000 ) ) ;
#184 = DIRECTION ( 'NONE',  ( -3.491481338843133355E-15, 1.224646799147353207E-16, -1.000000000000000000 ) ) ;
#185 = DIRECTION ( 'NONE',  ( 4.275831445896958607E-31, 1.000000000000000000, 1.224646799147353207E-16 ) ) ;
#186 = LOCAL_TIME ( 13, 19, 56.00000000000000000, #189 ) ;
#187 = CALENDAR_DATE ( 2021, 6, 10 ) ;
#188 = APPROVAL_STATUS ( 'not_yet_approved' ) ;
#189 = COORDINATED_UNIVERSAL_TIME_OFFSET ( 1, 0, .AHEAD. ) ;
#190 = EDGE_CURVE ( 'NONE', #85, #85, #44, .T. ) ;
#191 = LOCAL_TIME ( 13, 19, 56.00000000000000000, #174 ) ;
#192 = PERSON_AND_ORGANIZATION ( #155, #114 ) ;
#193 = CARTESIAN_POINT ( 'NONE',  ( 0.0000000000000000000, 0.0000000000000000000, 0.0000000000000000000 ) ) ;
#194 = PRODUCT_DEFINITION ( 'UNKNOWN', '', #94, #111 ) ;
#195 = DIRECTION ( 'NONE',  ( -3.491481338843133355E-15, 1.224646799147353207E-16, -1.000000000000000000 ) ) ;
#196 = FACE_BOUND ( 'NONE', #101, .T. ) ;
#197 = CARTESIAN_POINT ( 'NONE',  ( 1.326762908760390423E-13, 0.4749999999999953704, 38.00000000000000000 ) ) ;
#198 = EDGE_CURVE ( 'NONE', #31, #31, #141, .T. ) ;
#199 = DIRECTION ( 'NONE',  ( 3.491481338843133355E-15, -1.224646799147353207E-16, 1.000000000000000000 ) ) ;
#200 =( LENGTH_UNIT ( ) NAMED_UNIT ( * ) SI_UNIT ( .MILLI., .METRE. ) );
#201 = CALENDAR_DATE ( 2021, 6, 10 ) ;
#202 = CC_DESIGN_PERSON_AND_ORGANIZATION_ASSIGNMENT ( #126, #66, ( #94 ) ) ;
#203 = SECURITY_CLASSIFICATION_LEVEL ( 'unclassified' ) ;
ENDSEC;
END-ISO-10303-21;
