ISO-10303-21;
HEADER;
FILE_DESCRIPTION (( 'STEP AP203' ),
    '1' );
FILE_NAME ('55615.step',
    '2021-10-06T11:19:55',
    ( '' ),
    ( '' ),
    'SwSTEP 2.0',
    'SolidWorks 2019',
    '' );
FILE_SCHEMA (( 'CONFIG_CONTROL_DESIGN' ));
ENDSEC;

DATA;
#1 = CARTESIAN_POINT ( 'NONE',  ( 0.0000000000000000000, 0.0000000000000000000, 0.0000000000000000000 ) ) ;
#2 = DIRECTION ( 'NONE',  ( -3.491481338843133355E-15, 1.224646799147353207E-16, -1.000000000000000000 ) ) ;
#3 = FACE_OUTER_BOUND ( 'NONE', #126, .T. ) ;
#4 = ADVANCED_FACE ( 'NONE', ( #28 ), #30, .F. ) ;
#5 = PRODUCT_DEFINITION_SHAPE ( 'NONE', 'NONE',  #191 ) ;
#6 = LOCAL_TIME ( 13, 19, 55.00000000000000000, #58 ) ;
#7 = ADVANCED_FACE ( 'NONE', ( #143, #101 ), #203, .T. ) ;
#8 = APPLICATION_PROTOCOL_DEFINITION ( 'international standard', 'config_control_design', 1994, #41 ) ;
#9 = ORIENTED_EDGE ( 'NONE', *, *, #56, .F. ) ;
#10 = ORGANIZATION ( 'UNSPECIFIED', 'UNSPECIFIED', '' ) ;
#11 = DIRECTION ( 'NONE',  ( 1.000000000000000000, 0.0000000000000000000, 0.0000000000000000000 ) ) ;
#12 = DIRECTION ( 'NONE',  ( 4.275831445896958607E-31, 1.000000000000000000, 1.224646799147353207E-16 ) ) ;
#13 = APPROVAL_STATUS ( 'not_yet_approved' ) ;
#14 = ORIENTED_EDGE ( 'NONE', *, *, #50, .F. ) ;
#15 = MANIFOLD_SOLID_BREP ( 'Corps-Déplacer/Copier1[1]', #155 ) ;
#16 = FACE_OUTER_BOUND ( 'NONE', #66, .T. ) ;
#17 = CLOSED_SHELL ( 'NONE', ( #73, #57, #178 ) ) ;
#18 = DIRECTION ( 'NONE',  ( 3.491481338843133355E-15, -1.224646799147353207E-16, 1.000000000000000000 ) ) ;
#19 = CARTESIAN_POINT ( 'NONE',  ( 1.058267916295090025E-15, 0.6499999999999953593, 0.3030999778007509859 ) ) ;
#20 = CARTESIAN_POINT ( 'NONE',  ( 5.586370142149013368E-14, 4.874219293650987961E-33, 16.00000000000000000 ) ) ;
#21 = DIRECTION ( 'NONE',  ( -2.962969145211153303E-31, -1.000000000000000000, -8.340016711427016918E-17 ) ) ;
#22 = EDGE_CURVE ( 'NONE', #68, #68, #70, .T. ) ;
#23 = MANIFOLD_SOLID_BREP ( 'Corps-Déplacer/Copier1[2]', #17 ) ;
#24 = DATE_TIME_ROLE ( 'creation_date' ) ;
#25 = AXIS2_PLACEMENT_3D ( 'NONE', #168, #53, #171 ) ;
#26 = DATE_AND_TIME ( #142, #159 ) ;
#27 = PERSON_AND_ORGANIZATION ( #176, #10 ) ;
#28 = FACE_OUTER_BOUND ( 'NONE', #108, .T. ) ;
#29 = APPROVAL_ROLE ( '' ) ;
#30 = PLANE ( 'NONE',  #39 ) ;
#31 = APPROVAL_DATE_TIME ( #165, #104 ) ;
#32 = EDGE_LOOP ( 'NONE', ( #63 ) ) ;
#33 = PLANE ( 'NONE',  #92 ) ;
#34 = AXIS2_PLACEMENT_3D ( 'NONE', #69, #188, #85 ) ;
#35 = VERTEX_POINT ( 'NONE', #19 ) ;
#36 = DIRECTION ( 'NONE',  ( 0.0000000000000000000, 1.000000000000000000, 0.0000000000000000000 ) ) ;
#37 = ADVANCED_FACE ( 'NONE', ( #16, #112 ), #118, .T. ) ;
#38 = DIRECTION ( 'NONE',  ( -4.275831445896958607E-31, -1.000000000000000000, -1.224646799147353207E-16 ) ) ;
#39 = AXIS2_PLACEMENT_3D ( 'NONE', #82, #96, #12 ) ;
#40 = FACE_OUTER_BOUND ( 'NONE', #110, .T. ) ;
#41 = APPLICATION_CONTEXT ( 'configuration controlled 3d designs of mechanical parts and assemblies' ) ;
#42 = CC_DESIGN_APPROVAL ( #162, ( #160 ) ) ;
#43 = PERSON_AND_ORGANIZATION ( #176, #10 ) ;
#44 = CC_DESIGN_SECURITY_CLASSIFICATION ( #107, ( #160 ) ) ;
#45 = APPROVAL_ROLE ( '' ) ;
#46 = EDGE_LOOP ( 'NONE', ( #122 ) ) ;
#47 = PERSON_AND_ORGANIZATION_ROLE ( 'classification_officer' ) ;
#48 = ORIENTED_EDGE ( 'NONE', *, *, #56, .T. ) ;
#49 = CALENDAR_DATE ( 2021, 6, 10 ) ;
#50 = EDGE_CURVE ( 'NONE', #113, #113, #59, .T. ) ;
#51 = DIRECTION ( 'NONE',  ( 0.0000000000000000000, 1.000000000000000000, 0.0000000000000000000 ) ) ;
#52 = LOCAL_TIME ( 13, 19, 55.00000000000000000, #64 ) ;
#53 = DIRECTION ( 'NONE',  ( -3.491481338843133355E-15, 1.224646799147353207E-16, -1.000000000000000000 ) ) ;
#54 = CARTESIAN_POINT ( 'NONE',  ( 1.319779946082704535E-13, 0.6499999999999953593, 37.79999999999999716 ) ) ;
#55 = APPROVAL_PERSON_ORGANIZATION ( #109, #104, #29 ) ;
#56 = EDGE_CURVE ( 'NONE', #35, #35, #149, .T. ) ;
#57 = ADVANCED_FACE ( 'NONE', ( #102, #40 ), #185, .T. ) ;
#58 = COORDINATED_UNIVERSAL_TIME_OFFSET ( 1, 0, .AHEAD. ) ;
#59 = CIRCLE ( 'NONE', #114, 0.6500000000000000222 ) ;
#60 = ORIENTED_EDGE ( 'NONE', *, *, #50, .T. ) ;
#61 = PERSON_AND_ORGANIZATION_ROLE ( 'creator' ) ;
#62 = UNCERTAINTY_MEASURE_WITH_UNIT (LENGTH_MEASURE( 1.000000000000000082E-05 ), #89, 'distance_accuracy_value', 'NONE');
#63 = ORIENTED_EDGE ( 'NONE', *, *, #22, .T. ) ;
#64 = COORDINATED_UNIVERSAL_TIME_OFFSET ( 1, 0, .AHEAD. ) ;
#65 = PERSON_AND_ORGANIZATION ( #176, #10 ) ;
#66 = EDGE_LOOP ( 'NONE', ( #14 ) ) ;
#67 = CARTESIAN_POINT ( 'NONE',  ( 5.586370142149013368E-14, -1.959434878635765131E-15, 16.00000000000000000 ) ) ;
#68 = VERTEX_POINT ( 'NONE', #129 ) ;
#69 = CARTESIAN_POINT ( 'NONE',  ( 0.0000000000000000000, 0.0000000000000000000, 0.0000000000000000000 ) ) ;
#70 = CIRCLE ( 'NONE', #75, 0.4500000000000000111 ) ;
#71 = DIRECTION ( 'NONE',  ( 4.275831445896958607E-31, 1.000000000000000000, 1.224646799147353207E-16 ) ) ;
#72 = DIRECTION ( 'NONE',  ( -3.491481338843133355E-15, 1.224646799147353207E-16, -1.000000000000000000 ) ) ;
#73 = ADVANCED_FACE ( 'NONE', ( #3 ), #177, .T. ) ;
#74 = CIRCLE ( 'NONE', #144, 0.6499999999999972466 ) ;
#75 = AXIS2_PLACEMENT_3D ( 'NONE', #133, #130, #51 ) ;
#76 = AXIS2_PLACEMENT_3D ( 'NONE', #172, #2, #132 ) ;
#77 = ORIENTED_EDGE ( 'NONE', *, *, #22, .F. ) ;
#78 = ADVANCED_FACE ( 'NONE', ( #158 ), #33, .F. ) ;
#79 = PERSON_AND_ORGANIZATION ( #176, #10 ) ;
#80 = APPROVAL_ROLE ( '' ) ;
#81 = COORDINATED_UNIVERSAL_TIME_OFFSET ( 1, 0, .AHEAD. ) ;
#82 = CARTESIAN_POINT ( 'NONE',  ( 1.326762908760390423E-13, 3.374459510989109826E-33, 38.00000000000000000 ) ) ;
#83 = SHAPE_DEFINITION_REPRESENTATION ( #5, #194 ) ;
#84 = CARTESIAN_POINT ( 'NONE',  ( 1.319779946082704535E-13, -4.629164900776995227E-15, 37.79999999999999716 ) ) ;
#85 = DIRECTION ( 'NONE',  ( 4.275831445896959482E-31, 1.000000000000000000, 1.224646799147353454E-16 ) ) ;
#86 = VERTEX_POINT ( 'NONE', #147 ) ;
#87 = PLANE ( 'NONE',  #169 ) ;
#88 = AXIS2_PLACEMENT_3D ( 'NONE', #67, #72, #156 ) ;
#89 =( LENGTH_UNIT ( ) NAMED_UNIT ( * ) SI_UNIT ( .MILLI., .METRE. ) );
#90 =( GEOMETRIC_REPRESENTATION_CONTEXT ( 3 ) GLOBAL_UNCERTAINTY_ASSIGNED_CONTEXT ( ( #62 ) ) GLOBAL_UNIT_ASSIGNED_CONTEXT ( ( #89, #117, #125 ) ) REPRESENTATION_CONTEXT ( 'NONE', 'WORKASPACE' ) );
#91 = CC_DESIGN_DATE_AND_TIME_ASSIGNMENT ( #121, #180, ( #107 ) ) ;
#92 = AXIS2_PLACEMENT_3D ( 'NONE', #20, #18, #187 ) ;
#93 = PERSON_AND_ORGANIZATION ( #176, #10 ) ;
#94 = PRODUCT ( '55615', '55615', '', ( #119 ) ) ;
#95 = COORDINATED_UNIVERSAL_TIME_OFFSET ( 1, 0, .AHEAD. ) ;
#96 = DIRECTION ( 'NONE',  ( -3.491481338843133355E-15, 1.224646799147353207E-16, -1.000000000000000000 ) ) ;
#97 = DIRECTION ( 'NONE',  ( 0.0000000000000000000, 0.0000000000000000000, 1.000000000000000000 ) ) ;
#98 = EDGE_LOOP ( 'NONE', ( #60 ) ) ;
#99 = CARTESIAN_POINT ( 'NONE',  ( 5.586370142149013368E-14, 4.874219293650987961E-33, 16.00000000000000000 ) ) ;
#100 = CC_DESIGN_APPROVAL ( #154, ( #191 ) ) ;
#101 = FACE_OUTER_BOUND ( 'NONE', #98, .T. ) ;
#102 = FACE_OUTER_BOUND ( 'NONE', #197, .T. ) ;
#103 = DIRECTION ( 'NONE',  ( 3.491481338843133355E-15, -1.224646799147353207E-16, 1.000000000000000000 ) ) ;
#104 = APPROVAL ( #163, 'UNSPECIFIED' ) ;
#105 = AXIS2_PLACEMENT_3D ( 'NONE', #115, #174, #21 ) ;
#106 = CC_DESIGN_PERSON_AND_ORGANIZATION_ASSIGNMENT ( #79, #61, ( #160 ) ) ;
#107 = SECURITY_CLASSIFICATION ( '', '', #196 ) ;
#108 = EDGE_LOOP ( 'NONE', ( #77 ) ) ;
#109 = PERSON_AND_ORGANIZATION ( #176, #10 ) ;
#110 = EDGE_LOOP ( 'NONE', ( #167 ) ) ;
#111 = CALENDAR_DATE ( 2021, 6, 10 ) ;
#112 = FACE_BOUND ( 'NONE', #32, .T. ) ;
#113 = VERTEX_POINT ( 'NONE', #54 ) ;
#114 = AXIS2_PLACEMENT_3D ( 'NONE', #84, #145, #36 ) ;
#115 = CARTESIAN_POINT ( 'NONE',  ( 1.058267916295089827E-15, -3.711904176353234519E-17, 0.3030999778007509304 ) ) ;
#116 = VERTEX_POINT ( 'NONE', #173 ) ;
#117 =( NAMED_UNIT ( * ) PLANE_ANGLE_UNIT ( ) SI_UNIT ( $, .RADIAN. ) );
#118 = CONICAL_SURFACE ( 'NONE', #25, 0.4500000000000000111, 0.7853981633974512766 ) ;
#119 = MECHANICAL_CONTEXT ( 'NONE', #136, 'mechanical' ) ;
#120 = ORIENTED_EDGE ( 'NONE', *, *, #186, .F. ) ;
#121 = DATE_AND_TIME ( #153, #6 ) ;
#122 = ORIENTED_EDGE ( 'NONE', *, *, #195, .T. ) ;
#123 = CC_DESIGN_PERSON_AND_ORGANIZATION_ASSIGNMENT ( #27, #47, ( #107 ) ) ;
#124 = EDGE_LOOP ( 'NONE', ( #120 ) ) ;
#125 =( NAMED_UNIT ( * ) SI_UNIT ( $, .STERADIAN. ) SOLID_ANGLE_UNIT ( ) );
#126 = EDGE_LOOP ( 'NONE', ( #48 ) ) ;
#127 = APPROVAL_STATUS ( 'not_yet_approved' ) ;
#128 = DIRECTION ( 'NONE',  ( -3.491481338843133355E-15, 1.224646799147353207E-16, -1.000000000000000000 ) ) ;
#129 = CARTESIAN_POINT ( 'NONE',  ( 1.326762908760390423E-13, 0.4499999999999953482, 38.00000000000000000 ) ) ;
#130 = DIRECTION ( 'NONE',  ( -3.491481338843133355E-15, 1.224646799147353207E-16, -1.000000000000000000 ) ) ;
#131 = CC_DESIGN_PERSON_AND_ORGANIZATION_ASSIGNMENT ( #93, #151, ( #191 ) ) ;
#132 = DIRECTION ( 'NONE',  ( 2.962969145211153303E-31, 1.000000000000000000, 8.340016711427016918E-17 ) ) ;
#133 = CARTESIAN_POINT ( 'NONE',  ( 1.326762908760390423E-13, -4.653657836759941941E-15, 38.00000000000000000 ) ) ;
#134 = AXIS2_PLACEMENT_3D ( 'NONE', #181, #97, #11 ) ;
#135 = APPLICATION_PROTOCOL_DEFINITION ( 'international standard', 'config_control_design', 1994, #136 ) ;
#136 = APPLICATION_CONTEXT ( 'configuration controlled 3d designs of mechanical parts and assemblies' ) ;
#137 = PERSON_AND_ORGANIZATION ( #176, #10 ) ;
#138 = ORIENTED_EDGE ( 'NONE', *, *, #195, .F. ) ;
#139 = CC_DESIGN_DATE_AND_TIME_ASSIGNMENT ( #179, #24, ( #191 ) ) ;
#140 = APPROVAL_DATE_TIME ( #161, #154 ) ;
#141 = APPROVAL_PERSON_ORGANIZATION ( #65, #154, #80 ) ;
#142 = CALENDAR_DATE ( 2021, 6, 10 ) ;
#143 = FACE_OUTER_BOUND ( 'NONE', #164, .T. ) ;
#144 = AXIS2_PLACEMENT_3D ( 'NONE', #190, #189, #146 ) ;
#145 = DIRECTION ( 'NONE',  ( -3.491481338843133355E-15, 1.224646799147353207E-16, -1.000000000000000000 ) ) ;
#146 = DIRECTION ( 'NONE',  ( 0.0000000000000000000, 1.000000000000000000, 0.0000000000000000000 ) ) ;
#147 = CARTESIAN_POINT ( 'NONE',  ( 5.586370142149013368E-14, 0.6499999999999953593, 16.00000000000000000 ) ) ;
#148 = LOCAL_TIME ( 13, 19, 55.00000000000000000, #193 ) ;
#149 = CIRCLE ( 'NONE', #76, 0.6499999999999953593 ) ;
#150 = APPROVAL_DATE_TIME ( #26, #162 ) ;
#151 = PERSON_AND_ORGANIZATION_ROLE ( 'creator' ) ;
#152 = CC_DESIGN_APPROVAL ( #104, ( #107 ) ) ;
#153 = CALENDAR_DATE ( 2021, 6, 10 ) ;
#154 = APPROVAL ( #13, 'UNSPECIFIED' ) ;
#155 = CLOSED_SHELL ( 'NONE', ( #78, #7, #37, #4 ) ) ;
#156 = DIRECTION ( 'NONE',  ( 0.0000000000000000000, 1.000000000000000000, 0.0000000000000000000 ) ) ;
#157 = FACE_OUTER_BOUND ( 'NONE', #124, .T. ) ;
#158 = FACE_OUTER_BOUND ( 'NONE', #46, .T. ) ;
#159 = LOCAL_TIME ( 13, 19, 55.00000000000000000, #81 ) ;
#160 = PRODUCT_DEFINITION_FORMATION_WITH_SPECIFIED_SOURCE ( 'ANY', '', #94, .NOT_KNOWN. ) ;
#161 = DATE_AND_TIME ( #49, #148 ) ;
#162 = APPROVAL ( #127, 'UNSPECIFIED' ) ;
#163 = APPROVAL_STATUS ( 'not_yet_approved' ) ;
#164 = EDGE_LOOP ( 'NONE', ( #138 ) ) ;
#165 = DATE_AND_TIME ( #111, #52 ) ;
#166 = AXIS2_PLACEMENT_3D ( 'NONE', #1, #128, #71 ) ;
#167 = ORIENTED_EDGE ( 'NONE', *, *, #186, .T. ) ;
#168 = CARTESIAN_POINT ( 'NONE',  ( 1.326762908760390423E-13, -4.653657836759941941E-15, 38.00000000000000000 ) ) ;
#169 = AXIS2_PLACEMENT_3D ( 'NONE', #99, #103, #38 ) ;
#170 = CC_DESIGN_PERSON_AND_ORGANIZATION_ASSIGNMENT ( #183, #184, ( #94 ) ) ;
#171 = DIRECTION ( 'NONE',  ( 0.0000000000000000000, 1.000000000000000000, 0.0000000000000000000 ) ) ;
#172 = CARTESIAN_POINT ( 'NONE',  ( 1.058267916295089827E-15, -3.711904176353234519E-17, 0.3030999778007509304 ) ) ;
#173 = CARTESIAN_POINT ( 'NONE',  ( 5.586370142149013368E-14, 0.6499999999999953593, 16.00000000000000000 ) ) ;
#174 = DIRECTION ( 'NONE',  ( 3.491481338843133355E-15, -1.224646799147353207E-16, 1.000000000000000000 ) ) ;
#175 = PRODUCT_RELATED_PRODUCT_CATEGORY ( 'detail', '', ( #94 ) ) ;
#176 = PERSON ( 'UNSPECIFIED', 'UNSPECIFIED', 'UNSPECIFIED', ('UNSPECIFIED'), ('UNSPECIFIED'), ('UNSPECIFIED') ) ;
#177 = CONICAL_SURFACE ( 'NONE', #105, 0.6499999999999953593, 1.134464013796309123 ) ;
#178 = ADVANCED_FACE ( 'NONE', ( #157 ), #87, .T. ) ;
#179 = DATE_AND_TIME ( #199, #192 ) ;
#180 = DATE_TIME_ROLE ( 'classification_date' ) ;
#181 = CARTESIAN_POINT ( 'NONE',  ( 0.0000000000000000000, 0.0000000000000000000, 0.0000000000000000000 ) ) ;
#182 = DESIGN_CONTEXT ( 'detailed design', #41, 'design' ) ;
#183 = PERSON_AND_ORGANIZATION ( #176, #10 ) ;
#184 = PERSON_AND_ORGANIZATION_ROLE ( 'design_owner' ) ;
#185 = CYLINDRICAL_SURFACE ( 'NONE', #34, 0.6499999999999962474 ) ;
#186 = EDGE_CURVE ( 'NONE', #86, #86, #74, .T. ) ;
#187 = DIRECTION ( 'NONE',  ( -4.275831445896958607E-31, -1.000000000000000000, -1.224646799147353207E-16 ) ) ;
#188 = DIRECTION ( 'NONE',  ( -3.491481338843133355E-15, 1.224646799147353207E-16, -1.000000000000000000 ) ) ;
#189 = DIRECTION ( 'NONE',  ( -3.491481338843133355E-15, 1.224646799147353207E-16, -1.000000000000000000 ) ) ;
#190 = CARTESIAN_POINT ( 'NONE',  ( 5.586370142149013368E-14, -1.959434878635765131E-15, 16.00000000000000000 ) ) ;
#191 = PRODUCT_DEFINITION ( 'UNKNOWN', '', #160, #182 ) ;
#192 = LOCAL_TIME ( 13, 19, 55.00000000000000000, #95 ) ;
#193 = COORDINATED_UNIVERSAL_TIME_OFFSET ( 1, 0, .AHEAD. ) ;
#194 = ADVANCED_BREP_SHAPE_REPRESENTATION ( '55615', ( #15, #23, #134 ), #90 ) ;
#195 = EDGE_CURVE ( 'NONE', #116, #116, #202, .T. ) ;
#196 = SECURITY_CLASSIFICATION_LEVEL ( 'unclassified' ) ;
#197 = EDGE_LOOP ( 'NONE', ( #9 ) ) ;
#198 = APPROVAL_PERSON_ORGANIZATION ( #43, #162, #45 ) ;
#199 = CALENDAR_DATE ( 2021, 6, 10 ) ;
#200 = PERSON_AND_ORGANIZATION_ROLE ( 'design_supplier' ) ;
#201 = CC_DESIGN_PERSON_AND_ORGANIZATION_ASSIGNMENT ( #137, #200, ( #160 ) ) ;
#202 = CIRCLE ( 'NONE', #88, 0.6499999999999972466 ) ;
#203 = CYLINDRICAL_SURFACE ( 'NONE', #166, 0.6499999999999986899 ) ;
ENDSEC;
END-ISO-10303-21;
