ISO-10303-21;
HEADER;
FILE_DESCRIPTION (( 'STEP AP203' ),
    '1' );
FILE_NAME ('55613.step',
    '2021-10-06T11:19:54',
    ( '' ),
    ( '' ),
    'SwSTEP 2.0',
    'SolidWorks 2019',
    '' );
FILE_SCHEMA (( 'CONFIG_CONTROL_DESIGN' ));
ENDSEC;

DATA;
#1 = PERSON_AND_ORGANIZATION ( #129, #149 ) ;
#2 = EDGE_CURVE ( 'NONE', #105, #105, #169, .T. ) ;
#3 = AXIS2_PLACEMENT_3D ( 'NONE', #130, #131, #115 ) ;
#4 = CARTESIAN_POINT ( 'NONE',  ( 1.326762908760390423E-13, 3.186989538156377625E-33, 38.00000000000000000 ) ) ;
#5 = CC_DESIGN_PERSON_AND_ORGANIZATION_ASSIGNMENT ( #10, #65, ( #15 ) ) ;
#6 = DIRECTION ( 'NONE',  ( 4.275831445896958607E-31, 1.000000000000000000, 1.224646799147353207E-16 ) ) ;
#7 = DIRECTION ( 'NONE',  ( -3.491481338843133355E-15, 1.224646799147353207E-16, -1.000000000000000000 ) ) ;
#8 = FACE_OUTER_BOUND ( 'NONE', #61, .T. ) ;
#9 = DIRECTION ( 'NONE',  ( -3.491481338843133355E-15, 1.224646799147353207E-16, -1.000000000000000000 ) ) ;
#10 = PERSON_AND_ORGANIZATION ( #129, #149 ) ;
#11 = APPROVAL_DATE_TIME ( #39, #185 ) ;
#12 = PERSON_AND_ORGANIZATION ( #129, #149 ) ;
#13 = CC_DESIGN_APPROVAL ( #185, ( #15 ) ) ;
#14 = FACE_OUTER_BOUND ( 'NONE', #110, .T. ) ;
#15 = PRODUCT_DEFINITION ( 'UNKNOWN', '', #40, #36 ) ;
#16 = AXIS2_PLACEMENT_3D ( 'NONE', #150, #9, #194 ) ;
#17 = COORDINATED_UNIVERSAL_TIME_OFFSET ( 1, 0, .AHEAD. ) ;
#18 = COORDINATED_UNIVERSAL_TIME_OFFSET ( 1, 0, .AHEAD. ) ;
#19 = EDGE_CURVE ( 'NONE', #188, #188, #60, .T. ) ;
#20 = DIRECTION ( 'NONE',  ( 4.275831445896958607E-31, 1.000000000000000000, 1.224646799147353207E-16 ) ) ;
#21 = EDGE_LOOP ( 'NONE', ( #113 ) ) ;
#22 = EDGE_LOOP ( 'NONE', ( #133 ) ) ;
#23 = COORDINATED_UNIVERSAL_TIME_OFFSET ( 1, 0, .AHEAD. ) ;
#24 = APPROVAL_ROLE ( '' ) ;
#25 = DIRECTION ( 'NONE',  ( 0.0000000000000000000, 1.000000000000000000, 0.0000000000000000000 ) ) ;
#26 = APPROVAL_PERSON_ORGANIZATION ( #12, #185, #24 ) ;
#27 = PERSON_AND_ORGANIZATION ( #129, #149 ) ;
#28 = PRODUCT_RELATED_PRODUCT_CATEGORY ( 'detail', '', ( #141 ) ) ;
#29 = DIRECTION ( 'NONE',  ( 3.491481338843133355E-15, -1.224646799147353207E-16, 1.000000000000000000 ) ) ;
#30 = CYLINDRICAL_SURFACE ( 'NONE', #43, 0.6249999999999985567 ) ;
#31 = DIRECTION ( 'NONE',  ( 0.0000000000000000000, 1.000000000000000000, 0.0000000000000000000 ) ) ;
#32 = EDGE_CURVE ( 'NONE', #38, #38, #191, .T. ) ;
#33 = ORIENTED_EDGE ( 'NONE', *, *, #32, .F. ) ;
#34 = DIRECTION ( 'NONE',  ( -3.491481338843133355E-15, 1.224646799147353207E-16, -1.000000000000000000 ) ) ;
#35 = CARTESIAN_POINT ( 'NONE',  ( 0.0000000000000000000, 0.0000000000000000000, 0.0000000000000000000 ) ) ;
#36 = DESIGN_CONTEXT ( 'detailed design', #119, 'design' ) ;
#37 = AXIS2_PLACEMENT_3D ( 'NONE', #151, #98, #31 ) ;
#38 = VERTEX_POINT ( 'NONE', #175 ) ;
#39 = DATE_AND_TIME ( #83, #179 ) ;
#40 = PRODUCT_DEFINITION_FORMATION_WITH_SPECIFIED_SOURCE ( 'ANY', '', #141, .NOT_KNOWN. ) ;
#41 = DATE_TIME_ROLE ( 'classification_date' ) ;
#42 = CC_DESIGN_PERSON_AND_ORGANIZATION_ASSIGNMENT ( #173, #156, ( #141 ) ) ;
#43 = AXIS2_PLACEMENT_3D ( 'NONE', #93, #167, #20 ) ;
#44 = DIRECTION ( 'NONE',  ( -3.491481338843133355E-15, 1.224646799147353207E-16, -1.000000000000000000 ) ) ;
#45 = ORIENTED_EDGE ( 'NONE', *, *, #79, .T. ) ;
#46 = CC_DESIGN_PERSON_AND_ORGANIZATION_ASSIGNMENT ( #164, #145, ( #146 ) ) ;
#47 = ORIENTED_EDGE ( 'NONE', *, *, #2, .F. ) ;
#48 = CONICAL_SURFACE ( 'NONE', #177, 0.6249999999999953371, 1.134464013796309123 ) ;
#49 = EDGE_LOOP ( 'NONE', ( #183 ) ) ;
#50 = CC_DESIGN_PERSON_AND_ORGANIZATION_ASSIGNMENT ( #161, #193, ( #40 ) ) ;
#51 = CARTESIAN_POINT ( 'NONE',  ( 5.586370142149013368E-14, 0.6249999999999953371, 16.00000000000000000 ) ) ;
#52 = APPLICATION_PROTOCOL_DEFINITION ( 'international standard', 'config_control_design', 1994, #119 ) ;
#53 = PLANE ( 'NONE',  #132 ) ;
#54 = APPROVAL_ROLE ( '' ) ;
#55 = ADVANCED_BREP_SHAPE_REPRESENTATION ( '55613', ( #95, #96, #117 ), #72 ) ;
#56 = CC_DESIGN_DATE_AND_TIME_ASSIGNMENT ( #109, #41, ( #146 ) ) ;
#57 = APPROVAL_DATE_TIME ( #71, #192 ) ;
#58 = PERSON_AND_ORGANIZATION_ROLE ( 'creator' ) ;
#59 = DIRECTION ( 'NONE',  ( -3.491481338843133355E-15, 1.224646799147353207E-16, -1.000000000000000000 ) ) ;
#60 = CIRCLE ( 'NONE', #37, 0.6249999999999973355 ) ;
#61 = EDGE_LOOP ( 'NONE', ( #47 ) ) ;
#62 = DIRECTION ( 'NONE',  ( 0.0000000000000000000, 1.000000000000000000, 0.0000000000000000000 ) ) ;
#63 = ORIENTED_EDGE ( 'NONE', *, *, #79, .F. ) ;
#64 =( NAMED_UNIT ( * ) PLANE_ANGLE_UNIT ( ) SI_UNIT ( $, .RADIAN. ) );
#65 = PERSON_AND_ORGANIZATION_ROLE ( 'creator' ) ;
#66 = CALENDAR_DATE ( 2021, 6, 10 ) ;
#67 = DIRECTION ( 'NONE',  ( 1.000000000000000000, 0.0000000000000000000, 0.0000000000000000000 ) ) ;
#68 = ADVANCED_FACE ( 'NONE', ( #8, #75 ), #135, .T. ) ;
#69 = CARTESIAN_POINT ( 'NONE',  ( 5.586370142149013368E-14, 0.6249999999999953371, 16.00000000000000000 ) ) ;
#70 = APPROVAL_DATE_TIME ( #124, #162 ) ;
#71 = DATE_AND_TIME ( #142, #200 ) ;
#72 =( GEOMETRIC_REPRESENTATION_CONTEXT ( 3 ) GLOBAL_UNCERTAINTY_ASSIGNED_CONTEXT ( ( #100 ) ) GLOBAL_UNIT_ASSIGNED_CONTEXT ( ( #116, #64, #199 ) ) REPRESENTATION_CONTEXT ( 'NONE', 'WORKASPACE' ) );
#73 = CC_DESIGN_SECURITY_CLASSIFICATION ( #146, ( #40 ) ) ;
#74 = FACE_OUTER_BOUND ( 'NONE', #21, .T. ) ;
#75 = FACE_OUTER_BOUND ( 'NONE', #195, .T. ) ;
#76 = LOCAL_TIME ( 13, 19, 54.00000000000000000, #155 ) ;
#77 = DIRECTION ( 'NONE',  ( 3.081487911019600574E-31, 1.000000000000000000, 8.673617379884100800E-17 ) ) ;
#78 = CARTESIAN_POINT ( 'NONE',  ( 1.319779946082704535E-13, -4.629164900776995227E-15, 37.79999999999999716 ) ) ;
#79 = EDGE_CURVE ( 'NONE', #137, #137, #85, .T. ) ;
#80 = FACE_OUTER_BOUND ( 'NONE', #196, .T. ) ;
#81 = AXIS2_PLACEMENT_3D ( 'NONE', #78, #7, #62 ) ;
#82 = CARTESIAN_POINT ( 'NONE',  ( 5.586370142149013368E-14, 4.686749320818255760E-33, 16.00000000000000000 ) ) ;
#83 = CALENDAR_DATE ( 2021, 6, 10 ) ;
#84 = ADVANCED_FACE ( 'NONE', ( #186 ), #112, .F. ) ;
#85 = CIRCLE ( 'NONE', #3, 0.6249999999999973355 ) ;
#86 = DIRECTION ( 'NONE',  ( -3.081487911019600574E-31, -1.000000000000000000, -8.673617379884100800E-17 ) ) ;
#87 = CC_DESIGN_DATE_AND_TIME_ASSIGNMENT ( #118, #103, ( #15 ) ) ;
#88 = COORDINATED_UNIVERSAL_TIME_OFFSET ( 1, 0, .AHEAD. ) ;
#89 = CLOSED_SHELL ( 'NONE', ( #84, #125, #120, #144 ) ) ;
#90 = ORIENTED_EDGE ( 'NONE', *, *, #19, .F. ) ;
#91 = SECURITY_CLASSIFICATION_LEVEL ( 'unclassified' ) ;
#92 = CC_DESIGN_APPROVAL ( #162, ( #146 ) ) ;
#93 = CARTESIAN_POINT ( 'NONE',  ( 0.0000000000000000000, 0.0000000000000000000, 0.0000000000000000000 ) ) ;
#94 = EDGE_LOOP ( 'NONE', ( #90 ) ) ;
#95 = MANIFOLD_SOLID_BREP ( 'Corps-Déplacer/Copier1[1]', #89 ) ;
#96 = MANIFOLD_SOLID_BREP ( 'Corps-Déplacer/Copier1[2]', #122 ) ;
#97 = AXIS2_PLACEMENT_3D ( 'NONE', #101, #140, #25 ) ;
#98 = DIRECTION ( 'NONE',  ( -3.491481338843133355E-15, 1.224646799147353207E-16, -1.000000000000000000 ) ) ;
#99 = CARTESIAN_POINT ( 'NONE',  ( 5.586370142149013368E-14, 4.686749320818255760E-33, 16.00000000000000000 ) ) ;
#100 = UNCERTAINTY_MEASURE_WITH_UNIT (LENGTH_MEASURE( 1.000000000000000082E-05 ), #116, 'distance_accuracy_value', 'NONE');
#101 = CARTESIAN_POINT ( 'NONE',  ( 1.326762908760390423E-13, -4.653657836759941941E-15, 38.00000000000000000 ) ) ;
#102 = DIRECTION ( 'NONE',  ( 3.491481338843133355E-15, -1.224646799147353207E-16, 1.000000000000000000 ) ) ;
#103 = DATE_TIME_ROLE ( 'creation_date' ) ;
#104 = LOCAL_TIME ( 13, 19, 54.00000000000000000, #88 ) ;
#105 = VERTEX_POINT ( 'NONE', #174 ) ;
#106 = PRODUCT_DEFINITION_SHAPE ( 'NONE', 'NONE',  #15 ) ;
#107 = APPROVAL_ROLE ( '' ) ;
#108 = AXIS2_PLACEMENT_3D ( 'NONE', #170, #34, #77 ) ;
#109 = DATE_AND_TIME ( #123, #197 ) ;
#110 = EDGE_LOOP ( 'NONE', ( #63 ) ) ;
#111 = CONICAL_SURFACE ( 'NONE', #16, 0.4250000000000000444, 0.7853981633974512766 ) ;
#112 = PLANE ( 'NONE',  #138 ) ;
#113 = ORIENTED_EDGE ( 'NONE', *, *, #168, .F. ) ;
#114 = AXIS2_PLACEMENT_3D ( 'NONE', #4, #59, #6 ) ;
#115 = DIRECTION ( 'NONE',  ( 0.0000000000000000000, 1.000000000000000000, 0.0000000000000000000 ) ) ;
#116 =( LENGTH_UNIT ( ) NAMED_UNIT ( * ) SI_UNIT ( .MILLI., .METRE. ) );
#117 = AXIS2_PLACEMENT_3D ( 'NONE', #35, #139, #67 ) ;
#118 = DATE_AND_TIME ( #66, #76 ) ;
#119 = APPLICATION_CONTEXT ( 'configuration controlled 3d designs of mechanical parts and assemblies' ) ;
#120 = ADVANCED_FACE ( 'NONE', ( #80, #154 ), #111, .T. ) ;
#121 = DIRECTION ( 'NONE',  ( -4.275831445896958607E-31, -1.000000000000000000, -1.224646799147353207E-16 ) ) ;
#122 = CLOSED_SHELL ( 'NONE', ( #147, #68, #152 ) ) ;
#123 = CALENDAR_DATE ( 2021, 6, 10 ) ;
#124 = DATE_AND_TIME ( #143, #104 ) ;
#125 = ADVANCED_FACE ( 'NONE', ( #182, #181 ), #30, .T. ) ;
#126 = APPROVAL_STATUS ( 'not_yet_approved' ) ;
#127 = APPROVAL_PERSON_ORGANIZATION ( #176, #192, #107 ) ;
#128 = SHAPE_DEFINITION_REPRESENTATION ( #106, #55 ) ;
#129 = PERSON ( 'UNSPECIFIED', 'UNSPECIFIED', 'UNSPECIFIED', ('UNSPECIFIED'), ('UNSPECIFIED'), ('UNSPECIFIED') ) ;
#130 = CARTESIAN_POINT ( 'NONE',  ( 5.586370142149013368E-14, -1.959434878635765131E-15, 16.00000000000000000 ) ) ;
#131 = DIRECTION ( 'NONE',  ( -3.491481338843133355E-15, 1.224646799147353207E-16, -1.000000000000000000 ) ) ;
#132 = AXIS2_PLACEMENT_3D ( 'NONE', #82, #187, #121 ) ;
#133 = ORIENTED_EDGE ( 'NONE', *, *, #19, .T. ) ;
#134 = ORIENTED_EDGE ( 'NONE', *, *, #168, .T. ) ;
#135 = CYLINDRICAL_SURFACE ( 'NONE', #203, 0.6249999999999963363 ) ;
#136 = APPLICATION_PROTOCOL_DEFINITION ( 'international standard', 'config_control_design', 1994, #158 ) ;
#137 = VERTEX_POINT ( 'NONE', #51 ) ;
#138 = AXIS2_PLACEMENT_3D ( 'NONE', #99, #29, #172 ) ;
#139 = DIRECTION ( 'NONE',  ( 0.0000000000000000000, 0.0000000000000000000, 1.000000000000000000 ) ) ;
#140 = DIRECTION ( 'NONE',  ( -3.491481338843133355E-15, 1.224646799147353207E-16, -1.000000000000000000 ) ) ;
#141 = PRODUCT ( '55613', '55613', '', ( #189 ) ) ;
#142 = CALENDAR_DATE ( 2021, 6, 10 ) ;
#143 = CALENDAR_DATE ( 2021, 6, 10 ) ;
#144 = ADVANCED_FACE ( 'NONE', ( #74 ), #148, .F. ) ;
#145 = PERSON_AND_ORGANIZATION_ROLE ( 'classification_officer' ) ;
#146 = SECURITY_CLASSIFICATION ( '', '', #91 ) ;
#147 = ADVANCED_FACE ( 'NONE', ( #202 ), #48, .T. ) ;
#148 = PLANE ( 'NONE',  #114 ) ;
#149 = ORGANIZATION ( 'UNSPECIFIED', 'UNSPECIFIED', '' ) ;
#150 = CARTESIAN_POINT ( 'NONE',  ( 1.326762908760390423E-13, -4.653657836759941941E-15, 38.00000000000000000 ) ) ;
#151 = CARTESIAN_POINT ( 'NONE',  ( 5.586370142149013368E-14, -1.959434878635765131E-15, 16.00000000000000000 ) ) ;
#152 = ADVANCED_FACE ( 'NONE', ( #14 ), #53, .T. ) ;
#153 = EDGE_LOOP ( 'NONE', ( #134 ) ) ;
#154 = FACE_BOUND ( 'NONE', #153, .T. ) ;
#155 = COORDINATED_UNIVERSAL_TIME_OFFSET ( 1, 0, .AHEAD. ) ;
#156 = PERSON_AND_ORGANIZATION_ROLE ( 'design_owner' ) ;
#157 = CC_DESIGN_APPROVAL ( #192, ( #40 ) ) ;
#158 = APPLICATION_CONTEXT ( 'configuration controlled 3d designs of mechanical parts and assemblies' ) ;
#159 = VERTEX_POINT ( 'NONE', #178 ) ;
#160 = CIRCLE ( 'NONE', #97, 0.4250000000000000444 ) ;
#161 = PERSON_AND_ORGANIZATION ( #129, #149 ) ;
#162 = APPROVAL ( #163, 'UNSPECIFIED' ) ;
#163 = APPROVAL_STATUS ( 'not_yet_approved' ) ;
#164 = PERSON_AND_ORGANIZATION ( #129, #149 ) ;
#165 = APPROVAL_PERSON_ORGANIZATION ( #27, #162, #54 ) ;
#166 = DIRECTION ( 'NONE',  ( 4.275831445896957731E-31, 1.000000000000000000, 1.224646799147353454E-16 ) ) ;
#167 = DIRECTION ( 'NONE',  ( -3.491481338843133355E-15, 1.224646799147353207E-16, -1.000000000000000000 ) ) ;
#168 = EDGE_CURVE ( 'NONE', #159, #159, #160, .T. ) ;
#169 = CIRCLE ( 'NONE', #108, 0.6249999999999953371 ) ;
#170 = CARTESIAN_POINT ( 'NONE',  ( 1.017565304129893860E-15, -3.569138631108878184E-17, 0.2914422863468758007 ) ) ;
#171 = EDGE_LOOP ( 'NONE', ( #184 ) ) ;
#172 = DIRECTION ( 'NONE',  ( -4.275831445896958607E-31, -1.000000000000000000, -1.224646799147353207E-16 ) ) ;
#173 = PERSON_AND_ORGANIZATION ( #129, #149 ) ;
#174 = CARTESIAN_POINT ( 'NONE',  ( 1.017565304129894057E-15, 0.6249999999999953371, 0.2914422863468758562 ) ) ;
#175 = CARTESIAN_POINT ( 'NONE',  ( 1.319779946082704535E-13, 0.6249999999999953371, 37.79999999999999716 ) ) ;
#176 = PERSON_AND_ORGANIZATION ( #129, #149 ) ;
#177 = AXIS2_PLACEMENT_3D ( 'NONE', #190, #102, #86 ) ;
#178 = CARTESIAN_POINT ( 'NONE',  ( 1.326762908760390423E-13, 0.4249999999999953815, 38.00000000000000000 ) ) ;
#179 = LOCAL_TIME ( 13, 19, 54.00000000000000000, #23 ) ;
#180 = CC_DESIGN_PERSON_AND_ORGANIZATION_ASSIGNMENT ( #1, #58, ( #40 ) ) ;
#181 = FACE_OUTER_BOUND ( 'NONE', #49, .T. ) ;
#182 = FACE_OUTER_BOUND ( 'NONE', #94, .T. ) ;
#183 = ORIENTED_EDGE ( 'NONE', *, *, #32, .T. ) ;
#184 = ORIENTED_EDGE ( 'NONE', *, *, #2, .T. ) ;
#185 = APPROVAL ( #201, 'UNSPECIFIED' ) ;
#186 = FACE_OUTER_BOUND ( 'NONE', #22, .T. ) ;
#187 = DIRECTION ( 'NONE',  ( 3.491481338843133355E-15, -1.224646799147353207E-16, 1.000000000000000000 ) ) ;
#188 = VERTEX_POINT ( 'NONE', #69 ) ;
#189 = MECHANICAL_CONTEXT ( 'NONE', #158, 'mechanical' ) ;
#190 = CARTESIAN_POINT ( 'NONE',  ( 1.017565304129893860E-15, -3.569138631108878184E-17, 0.2914422863468758007 ) ) ;
#191 = CIRCLE ( 'NONE', #81, 0.6250000000000000000 ) ;
#192 = APPROVAL ( #126, 'UNSPECIFIED' ) ;
#193 = PERSON_AND_ORGANIZATION_ROLE ( 'design_supplier' ) ;
#194 = DIRECTION ( 'NONE',  ( 0.0000000000000000000, 1.000000000000000000, 0.0000000000000000000 ) ) ;
#195 = EDGE_LOOP ( 'NONE', ( #45 ) ) ;
#196 = EDGE_LOOP ( 'NONE', ( #33 ) ) ;
#197 = LOCAL_TIME ( 13, 19, 54.00000000000000000, #17 ) ;
#198 = CARTESIAN_POINT ( 'NONE',  ( 0.0000000000000000000, 0.0000000000000000000, 0.0000000000000000000 ) ) ;
#199 =( NAMED_UNIT ( * ) SI_UNIT ( $, .STERADIAN. ) SOLID_ANGLE_UNIT ( ) );
#200 = LOCAL_TIME ( 13, 19, 54.00000000000000000, #18 ) ;
#201 = APPROVAL_STATUS ( 'not_yet_approved' ) ;
#202 = FACE_OUTER_BOUND ( 'NONE', #171, .T. ) ;
#203 = AXIS2_PLACEMENT_3D ( 'NONE', #198, #44, #166 ) ;
ENDSEC;
END-ISO-10303-21;
